Song name
# A B C D E F G H I J K L M N O P Q R S T U V W X Y Z

Woe Is Me - Fame Over Demise tab

-------------------------------------------------------------------------------
			     WOE IS ME - fame over demise
-------------------------------------------------------------------------------
Tabbed by: Withinreach
Email: rippedsoul95@aim.com

i use this video to tab this out 
http://www.youtube.com/watch?feature=player_embedded&v=PXykr60jNA8. its the acoustic version..
 but yeah :D this is my first tab, my name is Jakup aka withinreach :P
 tell me if somethings wrong, i'd be more then glad too change it, but yeah..
 watch the video for the exact strumming pattern, or figure it out yourself,
 thats always fun? lol but yeah enjoy :)

Tuning: drop D

(intro)
e|--------------------------------------------------------|
B|--------------------------------------------------------|
G|--------------------------------------------------------|
D|-5----8----7----7-xx-----5----8----7--x-x-x-x-----------|
A|-1----5----3----3-xx-----1----5----3--x-x-x-x-----------|
E|-1----5----3----3-xx-----1----5----3--x-x-x-x-----------|

VERSE
e|------------------------------------------------------------|
B|------------------------------------------------------------|
G|------------------------------------------------------------|
D|-88x88x88x88xx--77x77x77x77xx--55x55x55x55xx--77x77x77x77xx-|   X2
A|-55x55x55x55xx--33x33x33x33xx--11x11x55x11xx--33x33x33x33xx-| (dont mute
E|-55x55x55x55xx--33x33x33x33xx--11x11x11x11xx--33x33x33x33xx-| the second
                                                                 time)
e|--------------------------------------------------------|
B|--------------------------------------------------------|
G|--------------------------------------------------------|
D|5-------------------------------------------------------|
A|1-----------(pause)-------------------------------------|
E|1-------------------------------------------------------|

CHORUS

e|---------------------------------------------|
B|---------------------------------------------|
G|---------------------------------------------|
D|-8888888888888888-1212121212121212-77777777--|
A|-5555555555555555--8 8 8 8 8 8 8 8-33333333--|
E|-5555555555555555--8 8 8 8 8 8 8 8-33333333--|

e|---------------------------------------------|
B|---------------------------------------------|
G|---------------------------------------------|
D|-8888888888888888-1212121212121212-77777777--|
A|-5555555555555555--8 8 8 8 8 8 8 8-33333333--|
E|-5555555555555555--8 8 8 8 8 8 8 8-33333333--|

e|---------------------------------------------|
B|---------------------------------------------|
G|---------------------------------------------|
D|-8888888888888888-1212121212121212-77-7777---|
A|-5555555555555555--8 8 8 8 8 8 8 8-33-3333---|
E|-5555555555555555--8 8 8 8 8 8 8 8-33-3333---|

e|----------------------------------------------------|
B|----------------------------------------------------|
G|----------------------------------------------------|
D|-55555555-88888888-5555555555555555xxxx-------------|
A|-11111111-55555555-3333333333333333xxxx-------------|
E|-11111111-55555555-3333333333333333xxxx-------------|

e|-----------------------------------------------------|
B|-----------------------------------------------------|
G|------------------------------------5555-7777--------|
D|-55555555-88888888-5555555555555555-xxxx-xxxx--------|
A|-11111111-55555555-3333333333333333-3333-5555--------|(pause)
E|-11111111-55555555-3333333333333333------------------|

VERSE 2
e|--------------------------------------------------------|
B|--------------------------------------------------------|
G|--------------------------------------------------------|  X4
D|-88888888-55555555-7777777777777777---------------------|
A|-55555555-11111111-3333333333333333---------------------|
E|-55555555-11111111-3333333333333333---------------------|

Outro
e|--------------------------------------------------------|
B|--------------------------------------------------------|
G|--------------------------------------------------------|
D|-5----8----7----5xx5----8----7-----5--------------------|
A|-1----5----3----1xx1----5----3-----1--------------------|
E|-1----5----3----1xx1----5----3-----1--------------------|



************************************


| x   Mute note
Tap to rate this tab
# A B C D E F G H I J K L M N O P Q R S T U V W X Y Z