Song name
# A B C D E F G H I J K L M N O P Q R S T U V W X Y Z

Woe Is Me - Delinquents tab

WOE IS ME - DELINQUENTS TAPPING TAB

Tuning: Drop C: C G C F A D

I noticed I couldn't find a tab anywhere for the tapping parts of the song so when i 
learnt them by ear and thought I should share them with the world. :)

Pretty sure theyre 100% percent correct, if you think any parts need changing mail me 
and let me know. To see how to position fingers when tapping watch my guitar cover of the 
video to help, it can be quite tricky :)

http://www.youtube.com/watch?v=9t0OlU1vcqo

Tabualture Legend:
(/) Slide Up
(\) Slide Down
(h) Hammer On
(p) Pull Off
(b) Bend
(r) Release
(v) Vibrato



0:34
D|----------------12/13-8-10--15/17-10-13-10--|
A|--10-3-6-15-8-10----------------------------|
F|--------------------------------------------|
C|--------------------------------------------| X2
G|--------------------------------------------|
C|--------------------------------------------|



For these next two parts you need to hold a kind of a chord shape (i dont know exactly 
what chord) but it goes as follows: E:0 A:0 D:5 G:5 B:3 e:5

0:40
D|--------------------10/12-5------15/17-5-|
A|--12-3----------------------13-3---------|
F|----------------9-5----------------------|
C|-------9-5-12-5--------------------------| X4
G|-----------------------------------------|
C|-----------------------------------------|

0:54
D|--17\15-5-13-5-10/12-------------------|
A|---------------------12-3--------------|
F|-----------------------------------9-5-|
C|--------------------------9-5-12-5-----|
D|---------------------------------------|
C|---------------------------------------|

1:02
D|--17\15-5-13-5-10/12------------------------|
A|---------------------12-3----------12-3-10~-|
F|--------------------------------------------|
C|--------------------------9-5-12-5----------|
D|--------------------------------------------|
C|--------------------------------------------|

2:26
D|-----------15-10h12-17/19-12-15-12p10h12--------|
A|--17-10h12------------------------------12-8h10-|
F|------------------------------------------------|
C|------------------------------------------------| X2
G|------------------------------------------------|
C|------------------------------------------------|

2:33
E|--19-12h15h17-p10h12h14-p7h10h12-p5h7-5h7-2h3-|
B|----------------------------------------------|
G|----------------------------------------------|
D|----------------------------------------------| X2
A|----------------------------------------------|
E|----------------------------------------------|

2:40
D|-----------15-10h12-17/19-12-15-12p10h12--------|
A|--17-10h12------------------------------12-8h10-|
F|------------------------------------------------|
C|------------------------------------------------| X2
G|------------------------------------------------|
C|------------------------------------------------|

2:47
E|--19-12h15h17-p10h12h14-p7h10h12-p5h7-5h7-2h3-|-5~~-|
B|----------------------------------------------|-----|
G|----------------------------------------------|-----|
D|----------------------------------------------|-----| Second time end on
A|----------------------------------------------|-----|
E|----------------------------------------------|-----|
Tap to rate this tab
# A B C D E F G H I J K L M N O P Q R S T U V W X Y Z