Song name
# A B C D E F G H I J K L M N O P Q R S T U V W X Y Z

Wohlstandsmuell - Radio tab

Help us improve GuitareTab! Take a short survey!
-------------------------------------------------------------------------------
			     Radio - Wohlstandsmuell
-------------------------------------------------------------------------------
Tabbed by:Jerico811


Tuning:Standard

Intro/Interlude:                               [x3]
e|--------------------------------------------|
B|--------------------------------------------|
G|--------------------------------------------|
D|-5-5--5-5---5-5--5-5---9-9--9-9---9-9---9-9-|
A|-5-5--5-5---5-5--5-5---9-9--9-9---9-9---9-9-|
E|-3-3--3-3---3-3--3-3---7-7--7-7---7-7---7-7-|

e|----------------------------------------------|
B|----------------------------------------------|
G|------------------------------------------7---|
D|-5-5--5-5---5-5--5-5---9-9-9-9-9-9-9-9-7--7-9-|
A|-5-5--5-5---5-5--5-5---9-9-9-9-9-9-9-9-7--5-9-|
E|-3-3--3-3---3-3--3-3---7-7-7-7-7-7-7-7-5----7-|
                                                                      _
Verse:                                                                 |
e|-----------------------------------------------------------------|   |
B|-----------------------------------------------------------------|   |
G|---------------------------------7-7-7-7-7-7-7-7-7-7-7-7-7-7-7---|   |
D|-5-5-5-5-5-5-5-5-9-9-9-9-9-9-9-9-7-7-7-7-7-7-7-7-7-7-7-7-7-7-7-9-|   |
A|-5-5-5-5-5-5-5-5-9-9-9-9-9-9-9-9-5-5-5-5-5-5-5-5-5-5-5-5-5-5-5-9-|   |
E|-3-3-3-3-3-3-3-3-7-7-7-7-7-7-7-7-------------------------------7-|   |
                                                                       | [x2]
e|--------------------------------------------------------|            |
B|--------------------------------------------------------|            |
G|-9-9-9-9-9-9-9-9-7-7-7-7-7-7-7-7-4-4-4-4-4-4-4-4----7---|            |
D|-9-9-9-9-9-9-9-9-7-7-7-7-7-7-7-7-4-4-4-4-4-4-4-4-7--7-9-|            |
A|-7-7-7-7-7-7-7-7-5-5-5-5-5-5-5-5-2-2-2-2-2-2-2-2-7--5-9-|            |
E|-------------------------------------------------5----7-|            |
                                                                      -
End:                                                                    
e|---|
B|---|
G|---|
D|-5-|
A|-5-|
E|-3-|

Order:
Intro
Verse
Interlude
Verse
Interlude
Verse
End

| /  slide up
| \  slide down
| h  hammer-on
| p  pull-off
| ~  vibrato
| +  harmonic
| x  Mute note
===============================================================================
www.blutpogo.com
http://www.myspace.com/wohlstandsm
Related for Radio tab