Song name
# A B C D E F G H I J K L M N O P Q R S T U V W X Y Z

Wohnout - Blazni tab

Wohnout Blazni
Guitar Tuning: Flat D# G# C# F# A# D#

Intro riff:

|--------------------|---------------------------------------|
|--------------------|---------------------------------------|
|--------------------|---------------------------------------|
|--------5-----------|-------2/4-----------------------------|
|---2/7----7p-5p-3---|-----2------6-----------2-22222-22-(2)-|
|-0------------------|---------------7--0-----0-00000-00-(0)-|
                                                ..... ..
Chorus:

|-----------------------------------------
|-----------------------------------------
|-9--9----5--5----------4-4pm-4pm-4pm-----
|-9--9----5--5----3--3--4-4pm-4pm-4pm-----
|-7--7----3--3----3--3--2-2pm-2pm-2pm-(2)-
|-----------------1--1----------------(0)-


------------------------------------|
------------------------------------|
-5--5----------4-4pm-4pm-4pm--------|
-5--5----3--3--4-4pm-4pm-4pm--------|
-3--3----3--3--2-2pm-2pm-2pm----(2)-|
---------1--1-------------------(0)-|

=============================================================================

|. and pm | = | palm mute |
|    /    | = |   slide   |
|   (x)   | = |  let ring |
|    p    | = |  pull of  |
Tap to rate this tab
# A B C D E F G H I J K L M N O P Q R S T U V W X Y Z