Song name
# A B C D E F G H I J K L M N O P Q R S T U V W X Y Z

Wolf Alice - Bros tab

-----------------------------------------------------------------------------
                                       Bros - Wolf Alice
-----------------------------------------------------------------------------

Great band that deserves much more exposure.
I've tabbed the lead part and added in bits that fit with the song, such as the bridge. 
I've tabbed the intro 1 octave higher than the record to suit the capo. 

http://www.youtube.com/watch?v=M96C8TB-lG0 - listen for rhythm

Tabbed by: Joe C

Tuning:Standard
Capo 10th - tab related to capo

Intro:

e|-------------666--/99977766666666-----------------------------------|
B|--------66777---77---------------74444444466677774------4-4---------|
G|--666888------------------------------------------666666-6-6666666--|
D|--------------------------------------------------------------------|
A|--------------------------------------------------------------------|
E|--------------------------------------------------------------------|

e|------------------------------|
B|--/6666666544444444-----------|
G|-------------------666666666--|
D|------------------------------|
A|------------------------------|
E|------------------------------|



Chorus Riff:

e|----------|
B|----2--0--|
G|--3--3--2-|
D|-4-4--4---|
A|----------|
E|----------|

Verse Chords:

   1:    2:     3:     4:

e|---|  |---|  |---|  |---|
B|-2-|  |-4-|  |-6-|  |-7-|
G|-3-|  |-3-|  |-5-|  |-6-|
D|-4-|  |-4-|  |-3-|  |-4-|
A|---|  |---|  |---|  |---|
E|---|  |---|  |---|  |---|

Bridge: 

e|---6-6-6-6-6-6-6-6-4-4-4-4-4-4-4-4----------------------------------|
B|-----------------------------------6-6-6-6-6-6-6-6-7-7-7-7-7-7-7-7--|
G|--6-6---6-6-6---6-3-3---3-3-3---3-----------------------------------|
D|----------------------------------6-6---6-6-6---6-4-4---4-4-4---4---|
A|--------------------------------------------------------------------|
E|--------------------------------------------------------------------|

e|--------------------------------------------------------------------|
B|---6-6-6-6-6-6-6-6-7-7-7-7-7-7-7-7-6-6-6-6-6-6-6-6-7-7-7-7-7-7-7-7--|
G|--------------------------------------------------------------------|
D|--3-3---3-3-3---3-4-4---4-4-4---4-3-3---3-3-3---3-4-4---4-4-4---4---|
A|--------------------------------------------------------------------|
E|--------------------------------------------------------------------|

e|---6-6-6-6-6-6-6-6-4-4-4-4-4-4-4-4----------------------------------|
B|-----------------------------------6-6-6-6-6-6-6-6-7-7-7-7-7-7-7-7--|
G|--6-6---6-6-6---6-3-3---3-3-3---3-----------------------------------|
D|----------------------------------6-6---6-6-6---6-4-4---4-4-4---4---|
A|--------------------------------------------------------------------|
E|--------------------------------------------------------------------|

e|---6-6-6-6-6-6-6-6-6-6-6-6-6-6-6-6-6-6-6-6-6-6-6-6-6-6-6--6---------|
B|------------------4-4---4-4-4---4-6-6---6-6-6---6-7-7---7-7---------|
G|--6-6---6-6-6---6---------------------------------------------------|
D|--------------------------------------------------------------------|
A|--------------------------------------------------------------------|
E|--------------------------------------------------------------------|


Verse 1: (Chord numbers above point in lyrics - single strum)

Shake your hair 

Have some fun
 
forget our mothers and past lovers 

forget everyone
      2              2
Oooh I'm so lucky
         1                1
You are my best friend 

          3                  4                         1           1
There's no one, there's no one that knows me like you do 

just me and you (Straight to chorus) 


Verse 2:(Constant strumming)
     1
Remember when we cut our hair
1
Both look like boys 
1
But we didn't care 
2                                    1
Thinking out together like we always do 
 1            3                4                 1        1
Ooo there's no one, there's no one quite like you 

just me and you (Straight to chorus)

Ending chord:

e|-2-|
B|-2-|
G|-3-|
D|-4-|
A|-4-|
E|-2-|


Structure:

Intro
Chorus riff x12
Verse 1
Chorus riff x12
Verse 2
Chorus riff x12
Bridge
Outro (Chorus riff x16)
Ending chord

Feedback + ratings will be appreciated :) 
 
Tap to rate this tab
# A B C D E F G H I J K L M N O P Q R S T U V W X Y Z