Song name
# A B C D E F G H I J K L M N O P Q R S T U V W X Y Z

Wolf Alice - Blush tab

BLUSH
Wolf Alice

Tuning: Standard
Capo: 0


INTRO
e|-----------------------------------------------------------|
B|-----19---------14---------9-------------------------------|
G|---19---------14----------9--------------------------------|
D|-----------------------------------------------------------|
A|-----------------------------------------------------------|
E|-----------------------------------------------------------|
(X12)


CHORDS USED IN HEAVY BIT (not sure about 2nd one)
e|-------2----------------------------------------------------|
B|-------3----------------------------0-----------------------|
G|-------4-------------2--------------1-----------------------|
D|-------4-------------2--------------2-----------------------|
A|-------2-------------0--------------2-----------------------|
E|-------2-------------0--------------0-----------------------|


SOLO
(WITH DISTORTION)         
e|-----------------------------------------------------------|
B|-----19---20-19---19---------------------------------------|
G|---19--19------19----19---18---18b19b18---18---------------|
D|------------------------19--19----------19--19-------------|
A|-----------------------------------------------------------|
E|-----------------------------------------------------------|

e|-----------------------------------------------------------|
B|-----------------------------------------------------------|
G|-----------------------------------------------------------|
D|-----18--18--18--18--18--18--18--18------------------------|
A|---19--19--19--19--19--19--19--19--------------------------|
E|-----------------------------------------------------------|
(X4)


2ND SOLO
e|--19-19-19-17-17-17-17-17-21-21-21-17-17-17-17-17--|
B|---------------------------------------------------|
G|---------------------------------------------------|
D|---------------------------------------------------|
A|---------------------------------------------------|
E|---------------------------------------------------|

e|--19-19-19-19-19-19-19-19-19-19-19-19-19-19-19-19--|
B|---------------------------------------------------|
G|---------------------------------------------------|
D|---------------------------------------------------|
A|---------------------------------------------------|
E|---------------------------------------------------|
(X2)

Tap to rate this tab
# A B C D E F G H I J K L M N O P Q R S T U V W X Y Z