Song name
# A B C D E F G H I J K L M N O P Q R S T U V W X Y Z

Wolf Biermann - Comandante Che Guevara tab

http://www.wolf-biermann.de/

this is an interpretion of the well-kown song

tabbed by braim

*cappo 3rd frt*


intro

    Asus2       Em

----0-0-1-1-0---0-0-1-1-0-----------------0-------------|
----0-0-0-0-0---0-0-0-0-0-----------------1-------------|
----2-2-2-2-2---0-0-0-0-0---repeat--------2-------------|
----2-2-2-2-2---2-2-2-2-2-------ends-with-2-------------|
--0-0-0-0-0-0---2-2-2-2-2-----------------0-------------|
--------------0-0-0-0-0-0-------------------------------|

              Am          Em        Asus4   E
---1-0---------------------0----1-0---------0-----------|
-3-----3-1-3-------1-------0--3-----3-3-3----0----------|
-----------------2-2-------0--------2-2-2-----1---------|
---------------2---------2----------2-2-2------2--------|
-------------0---------2------------0-0-0-------2-------|
---------------------0--------------------0------0--0-0-|

      C            G            F                     E
-------0-----0-0----3------3-3---1------1-1-----1-1-1-0-|
--------1----1-1-----3-----3-3----1-----1-1-1-3-1-1-1-0-|
---------0---0-0------4----4-4-----2----2-2-----2-2-2-1-|
----------2--2-2-------5---5-5------3---3-3-----3-3-3-2-|
-0-2-3-----3-3-3--------5--5-5-------3--3-3-----3-3-3-2-|
-----------------0-3-----3-3-3--1-----1-1-1-----1-1-1-0-|

verse:

-0--0-0-1-3-1--0--0-0------------------------|
-0--0-0-0-0-0--0--0-0------------------------|
-2--2-2-2-2-2--1--1-1--repeat----------------|
-2--2-2-2-2-2--2--2-2------------------------|
-0--0-0-0-0-0--2--2-2------------------------|
---------------0--0-0------------------------|

"uns bleibt, was gut war und klar war"..


     Am                           E
Uns bleibt, was gut war und klar war:
Am                       E
Daß man bei dir immer durchsah
Am                       G
und Liebe, Haß, doch nie Furcht sah
F                 Dm  E
comandante Ché Guevara


Sie fürchten dich, und wir lieben
dich vorn im Kampf, wo der Tod lacht,
wo das Volk Schluß mit der Not macht.
Nun bist du weg - und doch geblieben.
Uns bleibt, was gut war und klar war:
Daß man bei dir immer durchsah
und Liebe, Haß, doch nie Furcht sah
comandante Ché Guevara.

Und bist kein Bonze geworden,
kein hohes Tier, das nach Geld schielt
und vom Schreibtisch aus den Helden spielt
in feiner Kluft mit alten 0rden.
Uns bleibt, was gut war und klar war:
Daß man bei dir immer durchsah
und Liebe, Haß, doch nie Furcht sah
comandante Ché Guevara.

Ja, grad die Armen der Erde,
die brauchen mehr als zu fressen
und das hast du nie vergessen,
daß aus Menschen Menschen werden.
Uns bleibt, was gut war und klar war:
Daß man bei dir immer durchsah
und Liebe, Haß, doch nie Furcht sah
comandante Ché Guevara.

Der rote Stern an der Jacke,
im schwarzen Bart die Zigarre,
Jesus Christus mit der Knarre
- so führt dein Bild uns zur Attacke.
Uns bleibt, was gut war und klar war:
Daß man bei dir immer durchsah
und Liebe, Haß, doch nie Furcht sah
comandante Ché Guevara.
Tap to rate this tab
 
# A B C D E F G H I J K L M N O P Q R S T U V W X Y Z