Song name
# A B C D E F G H I J K L M N O P Q R S T U V W X Y Z

Wolf Mail - Blue Rose tab

Intro
-3------5-----7----8----8-----7------5-----3------|
-3------5-----7----8----8-----7------5-----3------|
-4------5-----7----9----9-----7------5-----4------|
-5------7-----9----10---10----9------7-----5------|
-5------7-----9----10---10----9------7-----5------|
-3------5-----7----8-----8----7------5-----3------|

-3------5-----7----8----8-----7------5-----3------|
-3------5-----7----8----8-----7------5-----3------|
-4------5-----7----9----9-----7------5-----4------|
-5------7-----9----10---10----9------7-----5------|
-5------7-----9----10---10----9------7-----5------|
-3------5-----7----8-----8----7------5-----3------|

Chorus repeat
-0------3-----0----3-----------|
-0------3-----0----3----7------|
-0------0-----0----0----7------|
-2------0-----2----0----7------|
-2------2-----2----2----5------|
-0------3-----0----3-----------|

-3------5-----7----8----8-----7------5-----3------|
-3------5-----7----8----8-----7------5-----3------|
-4------5-----7----9----9-----7------5-----4------|
-5------7-----9----10---10----9------7-----5------|
-5------7-----9----10---10----9------7-----5------|
-3------5-----7----8-----8----7------5-----3------|
Tap to rate this tab
 
# A B C D E F G H I J K L M N O P Q R S T U V W X Y Z