Song name
# A B C D E F G H I J K L M N O P Q R S T U V W X Y Z

Wolf Parade - Modern World tab

Modern World (Apologies To The Queen Mary)

Tuned down a whole step(DGCFAd)

-------------------------------------

--Sequence of Parts--
              
|----1------------------| (0:00-0:39)
|------------3----------| (0:39-0:52)
|----1------------------| (0:52-1:23)
|-------(2)------4------| (1:23-1:39)
|--------2-------4------| (1:39-2:11)
|--------2-------4---5--| (2:11-2:27)
|--------2-------4------| (2:27--end)

-------------------------------------

1)Intro/Verse Chords

       Em       Am
d|-----0--------0-----|
A|-----0--------1-----|
F|-----0--------2-----|
C|-----2--------2-----|
G|-----2--------0-----|
D|-----0--------0-----|

-------------------------------------

2)Second Chords

       G       C/G?
d|-----3--------3-----|
A|-----0--------0-----|
F|-----0--------0-----|
C|-----0--------2-----|
G|-----2--------3-----|
D|-----3--------0-----|

---------------------------------------------------------

3)Keyboard Fill (basic notes, mess about with rhythm)

d|---7--7--5--5--3--3--3--3----7--7--5--5--3--3--3--3---|
A|------------------------------------------------------|
F|------------------------------------------------------|
C|------------------------------------------------------|
G|------------------------------------------------------|
D|------------------------------------------------------|

d|---3--3--3--3--2--2--2--2p0---|
A|------------------------------|
F|------------------------------|
C|------------------------------|
G|------------------------------|
D|------------------------------|

------------------------------------------

4)Solo Riff

d|-------------------------------0-3-----|
A|---(0)---------0---------0---1-----0---|
F|-------0---0-2---0---------------------|
C|-------------------2-------------------|
G|---------------------------------------|
D|---------------------------------------|

------------------------------------------

5)Keyboard Fill 2

d|------------5--------|
A|---3--3--3-------3---|
F|---------------------|
C|---------------------|
G|---------------------|
D|---------------------|
Tap to rate this tab
# A B C D E F G H I J K L M N O P Q R S T U V W X Y Z