Song name
# A B C D E F G H I J K L M N O P Q R S T U V W X Y Z

Wolf People - October Fires tab

[---------------------------------------------------------------] intro bit
[--11--9--8--9--8--6--8--6--4--4--------------------------------] guitar 1
[---------------------------------------------------------------]
[---------------------------------------------------------------]
[---------------------------------------------------------------]
[---------------------------------------------------------------]

[---------------------------------------------------------------] intro/verse
[---------------------------------------------------------------] guitar 2
[--8-------6------8-------6--8--11--8----11-----13--------------]
[--8-x10---6-x10--8--x5---6--8--11--8-x1-11-x5--13-x5-----------]
[--6-------4------6-------4--6--9---6----9------11--------------]
[---------------------------------------------------------------]

To give you an idea of the song.
Tap to rate this tab
 
# A B C D E F G H I J K L M N O P Q R S T U V W X Y Z