Song name
# A B C D E F G H I J K L M N O P Q R S T U V W X Y Z

Wolf - Whisky Psycho Hellions tab

----------------------------------------------------------------------------
			            WHISKY PSYCHO HELLIONS - WOLF - RAVENOUS
----------------------------------------------------------------------------

Tuning: Eb

Chords:
C#5 : x577xx
A5  : x133xx
G#5 : x022xx

(0:00 - 0:39)
lead guitar (Axeman)
eb|----------------------------------------------------------|
Bb|----------------------------------------------------------|
Gb|----------------------------------------------------------|
Db|-----------3p2-----------------------3p2------------------|
Ab|----5-3h5-------5p3--5/7p5----5-3h5-------5p3--5/7p5------|
Eb|----------------------------------------------------------|


eb|----------------------------------------------------------|
Bb|----------------------------------------------------------|
Gb|----------------------------------------------------------|
Db|-----------3p2-----------------------3p2------------------|
Ab|----5-3h5-------5p3--5/7p5----5-3h5-------5p3--5/7p5------|
Eb|----------------------------------------------------------|

(0:08)
rhythm guitar (Stalvind)
      C#5          A5     G#5                                           
eb|---------------------------------------|
Bb|---------------------------------------|
Gb|----7------------3------2--------------|
Db|----7------------3------2--------------| X2
Ab|----5------------1------0--------------|
Eb|---------------------------------------|

(0:22)
       C#5                     A5          G#5
eb|------------------------------------------------------------|
Bb|------------------------------------------------------------|
Gb|----7-7-7-7-7-7-7-7-7-7-7-7-3-3-3-3-3-3-2-2-2-2-2-2---------|
Db|----7-7-7-7-7-7-7-7-7-7-7-7-3-3-3-3-3-3-2-2-2-2-2-2---------|
Ab|----5-5-5-5-5-5-5-5-5-5-5-5-1-1-1-1-1-1-0-0-0-0-0-0---------|
Eb|------------------------------------------------------------|





************************************

| /   slide up
| \   slide down
| h   hammer-on
| p   pull-off
| ~   vibrato
| +   harmonic
| x   Mute note
| b   Bend
| pb  Pre-bend
| br  Bend release
| pbr Pre-bend release
| brb Bend release bend

************************************
Tap to rate this tab
 
# A B C D E F G H I J K L M N O P Q R S T U V W X Y Z