Wolf - Speed On tab

Speed On - Wolf

		tabbed by Billy Nolte / WhiteVVolfStudios 

                Youtube channel: 

                http://www.youtube.com/user/WhiteVVolfStudios?feature=mhee

		This is NOTE FOR NOTE how I play it in this video:
		http://www.youtube.com/watch?v=kyslhgctxHI

		Sorry if this is confusing, this is my first time 
		tabbing a song like this.


***All sections have a header with the name of the section. 

***At end of tablature, song is laid out like so:

[Verse 1]
[Chorus]x2 (x2 = "play this section 2 times")
[Verse 2] etc...

***This shows you which sections to play in order and makes sense of
   my crappy tab layout. This band uses way too many alternate parts.

	

NOTATIONS:
	
	PM = palm mute. The P is directly over the note to palm mute. 
             Periods after the palm mute mean to keep palm muting until
             they stop. Periods are also directly over the palm muted
	     notes.

	~ = hold the note. This should help with timing of the song. 
   	    If too confusing to read, ignore. 

	b = bend (Only used in solo, bend to 15th fret during the bends)

	h = hammer on the next fret shown

	p = pull off to the next fret shown

	t= tap the next fret shown


*** Intro 

(Alternate pick these fast. Figure out timing by yourself. 
At last chord it slows down to keep pace with drums)

e|---------------------------|
B|---------------------------|
G|---------------------------|
D|6--7--9--11-7--6-----------|
A|4--5--7--9--5--4-----------|
E|---------------------------|

***Intro riff


  PM...  
e|--------|
B|--------|
G|------6-|
D|6-6-6---|   <--- Play this in the beginning
A|--------|
E|--------|

  PM.......
e|---------------|
B|---------------|
G|----------6----|
D|6-6-6-6-6------| <--- Then repeat this for the rest of the intro riff
A|---------------|
E|---------------|

***Intro riff 2 

      PM  PM.   PM                  PM.   PM.   PM  
e|-----------------------------------------------------------------|
B|--------------------------7-9-----------------------------7-9----|
G|6---6-----6---8-9-8-6-8-9-----6-----6-----6---8-9-8-6-8-9--------|
D|--6---6-6---6-------------------6-6---6-6---6--------------------|
A|-----------------------------------------------------------------|
E|-----------------------------------------------------------------|

***Intro riff 3

    PM.   PM.   PM                  PM.   PM.   PM  
e|-----------------------------------------------------------------|
B|------------------6-------------------------------6--------------|
G|7-----7-----7---9---9-7-9-7-6-7-7-----7-----7---9---9-7-9-7-6-7--|
D|--7-7---7-7---7-------------------7-7---7-7---7------------------|
A|-----------------------------------------------------------------|
E|-----------------------------------------------------------------|


***Verse part 1

        PM           PM              PM           PM 
e|-----------------------------------------------------------------|
B|-----------------------------------------------------------------|
G|-----------------------------------------------------------------|
D|---------------------7-7~~~~----------------------4-6-8----------|
A|--4-----4~~0-0-4p0---5-5~~~~---4-----4~~0-0-4p0---2-4-6----------|
E|2~--2-0------------0---------2~--2-0------------0----------------|


***Verse part 2
                   PM              PM           PM
e|-----------------------------------------------------------------|
B|-----------------------------------------------------------------|
G|-----------------------------------------------------------------|
D|-------------------7-7~~~~----------------------4-6--------------|
A|4-----4~~0-0-4p0---5-5~~~~---4-----4~~0-0-4p0---2-4-6------------|
E|--2-0------------0---------2~--2-0------------0-----4------------|

***Verse part 3
        PM           PM              PM           PM 
e|-----------------------------------------------------------------|
B|-----------------------------------------------------------------|
G|-----------------------------------------------------------------|
D|-------------------7-7~~~~----------------------4-6-8------------|
A|4-----4~~0-0-4p0---5-5~~~~---4-----4~~0-0-4p0---2-4-6------------|
E|--2-0------------0---------2~--2-0------------0------------------|

***Alt. Verse part 2 

      PM           PM              PM           PM    PM
e|-----------------------------------------------------------------|
B|-----------------------------------------------------------------|
G|-----------------------------------------------------------------|
D|-------------------7-7~~~~---------------------------------------|
A|4-----4~~0-0-4p0---5-5~~~~---4-----4~~0-0-4p0---5p4---5p4--------|
E|--2-0------------0---------2~--2-0------------0-----0------------|

***Chorus 1

     PM.......................    PM.......         PM
e|-----------------------------------------------------------------|
B|-----------------------------------------------------------------|
G|-----------------------------------------------------------------|
D|7~~--------------------------6~~------------6-6~~---6-6-6--------|
A|5~~5-5-5-5-5-5-5-5-5-5-5-5-5-4~~4-4-4-4-4-4-4-4~~-4-4-4-4--------|
E|-----------------------------------------------------------------|

     PM.......................       
e|-----------------------------|
B|-----------------------------|
G|-----------------------------|
D|7~~--------------------------|
A|5~~5-5-5-5-5-5-5-5-5-5-5-5-5-|
E|-----------------------------|

     PM           PM              PM           PM    PM
e|-----------------------------------------------------------------|
B|-----------------------------------------------------------------|
G|-----------------------------------------------------------------|
D|---------------------7-7~~~~----------------------2~2-2-2-2-2-2-2|
A|--4-----4~~0-0-4p0---5-5~~~~---4-----4~~0-0-4p0---0~0-0-0-0-0-0-0|
E|2---2-0------------0---------2~--2-0------------0----------------|


***Intro to bridge part 1

  PM.............................................................
e|-----------------------------------------------------------------|
B|-----------------------------------------------------------------|
G|-----------------------------------------------------------------|
D|-----------------------------------------------------------------|
A|----3-3-2-2---------3-3-2-2---------3-3-2-2---------3-3-2-2------|
E|2-2---------5-5-2-2---------5-5-2-2---------5-5-2-2---------5-5--|

***Intro to bridge part 2

  PM.................
e|-------------------|
B|-------------------|
G|-------------------|
D|-------------------|
A|----10-10-9-9------|
E|9-9-----------12-12|

***Intro to bridge part 3

  PM...................
e|---------------------|
B|---------------------|
G|---------------------|
D|---------------------|
A|---------------------|
E|9-9-10-10-11-11-12-12|

***Bridge

    PM.   PM.   PM.   PM.   PM  PM  PM.   PM.   PM.   PM  PM  PM 
e|-----------------------------------------------------------------|
B|-----------------------------------------------------------------|
G|-----------------------------------------------------------------|
D|-----------------------------------------------------------------|
A|6-----6-----6-----6-----4---7---6-----6-----6-----6---4---7------|
E|--0-0---0-0---0-0---0-0---0---0---0-0---0-0---0-0---0---0---0----|

e|-----------------------------------------------------------------|
B|-----------------------------------------------------------------|
G|-----------------------------------------------------------------|
D|------11~~~~~~~-------11~~~~~~~----------------------------------|
A|4-4~~-9~~~~~~~~-4-4~~-9~~~~~~~~----------------------------------|
E|2-2~~-----------2-2~~--------------------------------------------|


***Solo

e|-----------------------------------------------------------------|
B|-----------------------------------------------------------------|
G|16~~14------171614--1416171614--14161719171614-------------------|
D|-------16~~-------17----------17--------------171614121416-------|
A|-----------------------------------------------------------------|
E|-----------------------------------------------------------------|

                              PM......
e|-----------------------------------------------------------------|
B|-------------------------------------12h13p12-10-12~~------------|
G|12~~-11-9~~-11h12p11-9-11~~-11-12-14-----------------------------|
D|-----------------------------------------------------------------|
A|-----------------------------------------------------------------|
E|-----------------------------------------------------------------|

e|-----------------------------------------------------------------|
B|12p10h12t17p12p10h12t19p12p10h12t20p12p10h12t19p12---------------|
G|-----------------------------------------------------------------|
D|-----------------------------------------------------------------|
A|-----------------------------------------------------------------|
E|-----------------------------------------------------------------|
                   
e|-----------------------------------------------------------------|
B|17~~~~-17151417~-151412-151412-151412-14b~~14-14b~~14-14b~~------|
G|-----------------------------------------------------------------|
D|-----------------------------------------------------------------|
A|-----------------------------------------------------------------|
E|-----------------------------------------------------------------|

e|-----------------------------------------------------------------|
B|14h15p14-12-10-15~~-14~~-12~~~~-11-9-7-9~~-----------------------|
G|-----------------------------------------------------------------|
D|-----------------------------------------------------------------|
A|-----------------------------------------------------------------|
E|-----------------------------------------------------------------|


***Chorus part 1

     PM.......................    PM.......         PM
e|-----------------------------------------------------------------|
B|-----------------------------------------------------------------|
G|-----------------------------------------------------------------|
D|7~~--------------------------6~~------------6-6~~---6-6-6--------|
A|5~~5-5-5-5-5-5-5-5-5-5-5-5-5-4~~4-4-4-4-4-4-4-4~~-4-4-4-4--------|
E|-----------------------------------------------------------------|

     PM.......................    PM.......         PM
e|-----------------------------------------------------------------|
B|-----------------------------------------------------------------|
G|-----------------------------------------------------------------|
D|7~~--------------------------6~~------------6-6~~---6-6-6--------|
A|5~~5-5-5-5-5-5-5-5-5-5-5-5-5-4~~4-4-4-4-4-4-4-4~~-4-4-4-4--------|
E|-----------------------------------------------------------------|

     PM.......................   
e|-----------------------------------------------------------------|
B|-----------------------------------------------------------------|
G|-----------------------------------------------------------------|
D|7~~--------------------------9~~~~~~~~~~~~~~~~~~-----------------|
A|5~~5-5-5-5-5-5-5-5-5-5-5-5-5-7~~~~~~~~~~~~~~~~~~-----------------|
E|-----------------------------------------------------------------|

***Chorus part 2

    PM.......................    PM.......         PM
e|-----------------------------------------------------------------|
B|-----------------------------------------------------------------|
G|-----------------------------------------------------------------|
D|7~~--------------------------6~~------------6-6~~---6-6-6--------|
A|5~~5-5-5-5-5-5-5-5-5-5-5-5-5-4~~4-4-4-4-4-4-4-4~~-4-4-4-4--------|
E|-----------------------------------------------------------------|

     PM.......................    PM.......         PM
e|-----------------------------------------------------------------|
B|-----------------------------------------------------------------|
G|--------------------------------------------9-9~*---9-9-9~*------|
D|7~~--------------------------6~~------------6-6~*---6-6-6~*------|
A|5~~5-5-5-5-5-5-5-5-5-5-5-5-5-4~~4-4-4-4-4-4-4-4~*-4-4-4-4~*------|
E|-----------------------------------------------------------------|

     PM.......................   
e|-----------------------------------------------------------------|
B|-----------------------------------------------------------------|
G|-----------------------------------------------------------------|
D|7~~--------------------------9~~~~~~~~~~~~~~~~~~-----------------|
A|5~~5-5-5-5-5-5-5-5-5-5-5-5-5-7~~~~~~~~~~~~~~~~~~-----------------|
E|-----------------------------------------------------------------|


***Outro

        PM           PM              PM           PM 
e|-----------------------------------------------------------------|
B|-----------------------------------------------------------------|
G|-----------------------------------------------------------------|
D|---------------------7-7~~~~----------------------4-6-8----------|
A|--4-----4~~0-0-4p0---5-5~~~~---4-----4~~0-0-4p0---2-4-6----------|
E|2~--2-0------------0---------2~--2-0------------0----------------|

                   PM              PM           PM
e|----------------------------------------------------|
B|----------------------------------------------------|
G|----------------------------------------------------|
D|-------------------7-7~~~~----------------------4-6-|
A|4-----4~~0-0-4p0---5-5~~~~---4-----4~~0-0-4p0---2-4-|
E|--2-0------------0---------2~--2-0------------0-----|

e|-----------------------------------------------------------------|
B|-----------------------------------------------------------------|
G|-----------------------------------------------------------------|
D|8~*-8~*-8-8~~~~~~/(2)*-------------------------------------------|
A|6~*-6~*-6-6~~~~~~/(0)*-------------------------------------------|
E|-----------------------------------------------------------------|

***Song structure:

[Intro]
[Intro riff 1]x lots (figure it out on your own. Too many to count.)
[Intro riff 2]x 2
[Intro riff 3]x 2
[Intro riff 2]x 2
[Intro riff 3]x 2
[Verse part 1] 
[Verse part 2]
[Verse part 3]
[Verse part 2]
[Verse part 3]
[Alt. verse part 2]
[Chorus 1]
[Verse part 1] 
[Verse part 2]
[Verse part 3]
[Alt. verse part 2]
[Chorus part 1]
[Intro to bridge part 1]
[Intro to bridge part 2]x 4
[Intro to bridge part 3]
[Bridge]x 2
[Intro riff 2]x 2
[Intro riff 3]x 2
[Intro riff 2]x 2
[Intro riff 3]x 2
[Solo]
[Chorus part 1]
[Chorus part 2]
[Outro]

Hope you enjoyed!
Tap to rate this tab
 
# A B C D E F G H I J K L M N O P Q R S T U V W X Y Z