Song name
# A B C D E F G H I J K L M N O P Q R S T U V W X Y Z

Wolfchant - A Tale From The Old Fields tab

----------------------------------------------------------------------------
                             A Tale from the Old Fields - Wolfchant
----------------------------------------------------------------------------
Tabbed by: Matt Hurd
E-mail:

Tuning: Standard

e|-----------------------------------------------------------------------|
B|-----------------------------------------------------------------------|
G|----12--10--12----8--7-----------------12--10--12--14--15--10--12------|
D|-10---------------------8--10------10----------------------------------|
A|-----------------------------------------------------------------------|
E|-----------------------------------------------------------------------|

 -----------------------------------------------------------------------|
 -----------------------------------------------------------------------|
 ----12--10--12--8--7--------------8--88---10--12----8------------------|
 10--------------------8--10-----------------------------8--10----------| x2
 -----------------------------------------------------------------------|
 -----------------------------------------------------------------------|



e|-------------------------------------------------------------------------|
B|--13-15-16--15-13---11------11---11h13~~~--11----------------------------|
G|------------------------12----12----------------12---10------------------| x2
D|--------------------------------------------------------13--12-10----10--|
A|------------------------------------------------------------------13-----|
E|-------------------------------------------------------------------------|

pretty much repeats itself/ slows tempo for the rest of song
Tap to rate this tab
 
# A B C D E F G H I J K L M N O P Q R S T U V W X Y Z