Song name
# A B C D E F G H I J K L M N O P Q R S T U V W X Y Z

Wolfgang Amadeus Mozart - Fur Elise tab

e|-9--8-9---8-9-8-9-8-9--------------------------------------------------|
B|----------------------9-12-10-----------------9-----------9-10---------|
G|------------------------------11-----------11----------10--------------|
D|----------------------------------------11----------11--------------11-|
A|-----------------------------------9-12-----------8---------------9----|
E|---------------------------------9--------------9---------------9------|

e|-9--8-9-8-9---------------------------------------------|
B|------------9-12-10-----------------9-------10-9--------|
G|--------------------11-----------11--------------11-----|
D|------------------------------11----------11------------|
A|-------------------------9-12-----------8-------------9-|
E|-----------------------9--------------9-------------9---|

e|-9--8-9-8-9-------------------------------------------------|
B|------------9-12-10-----------------9-----------9-10--------|
G|--------------------11-----------11----------10-------------|
D|------------------------------11----------11-------------11-|
A|-------------------------9-12-----------8--------------9----|
E|-----------------------9--------------9--------------9------|

e|-9--8-9-8-9-----------------------------------------------|
B|------------9-12-10-----------------9-------10-9--------9-|
G|--------------------11-----------11--------------11-------|
D|------------------------------11---------11---------------|
A|-------------------------9-12----------8--------------9---|
E|-----------------------9-------------9--------------9-----|

e|-------9---------10-9-------------9------------------------------9---9-21-|
B|-10-12----------------12------------12-10--------12-10-9------------------|
G|--------------------------------------------------------------------------|
D|---------------9---------------12-------------11-----------11-11----------|
A|------------12--------------11--------------9-----------------------------|
E|---------12--------------12---------------9--------------9---------9------|

e|-8-9-8-9-8-9-------------------------------------------------|
B|-------------9-12-10-----------------9-----------9-10--------|
G|---------------------11-----------11----------10-------------|
D|-------------------------------11----------11-------------10-|
A|--------------------------9-12-----------8--------------9----|
E|------------------------9--------------9--------------9------|

e|-9--8-9-8-9----------------------------------------------|
B|------------9-12-10-----------------9--------10-9--------|
G|--------------------11-----------11---------------11-----|
D|------------------------------11----------11-------------|
A|-------------------------9-12-----------8--------------9-|
E|-----------------------9--------------9--------------9---|

e|-9--8-9-8-9-------------------------------------------------|
B|------------9-12-10-----------------9-----------9-10--------|
G|--------------------11-----------11----------10-------------|
D|------------------------------11----------11-------------10-|
A|-------------------------9-12-----------8--------------9----|
E|-----------------------9--------------9--------------9------|

e|-9--8-9-8-9------------------------------------------|
B|------------9-12-10-----------------9--------10-9----|
G|--------------------11-----------11---------------11-|
D|------------------------------11----------11---------|
A|-------------------------9-12-----------8------------|
E|-----------------------9--------------9--------------|
Tap to rate this tab
# A B C D E F G H I J K L M N O P Q R S T U V W X Y Z