Guitaretab - guitar tabs
Song name
# A B C D E F G H I J K L M N O P Q R S T U V W X Y Z

Wolfgang Amadeus Mozart - Turkish Rondo tab

Hií i wish to submit the complete song, but i check if it right, and, i only submit the 
notes, the bass notes and the rest of the song is in process, stil.

h=hammer

E|--------------|-----------------|-7-----------8---|
B|--------------|-5-------------6-|---10-9-10-9-----|
G|----4---------|---6---7-6-7-6---|-----------------|
D|------7-6-7-6-|-----------------|-----------------|
A|--------------|-----------------|-----------------|
E|--------------|-----------------|-----------------|
[ Tab from: http://www.guitaretab.com/w/wolfgang-amadeus-mozart/191015.html ]
E|--5-7h87-5---5-7-5---5-7-5-------|
B|-----------8-------8-------8-7-5-|
G|---------------------------------|
D|---------------------------------|
A|---------------------------------|
E|---------------------------------|

E|----------5---------|
B|--5-6-8-8---8-6-5---|
G|------------------7-|
D|--------------------| x2
A|--------------------|
E|--------------------|

E|--------------------|
B|------5-6-----------|
G|--5-7-----7-5-4-----|
D|--------------------| x2
A|--------------------|
E|--------------------|

It's only a part but is not all i will listen more a part what i can't play i wish i can 
letter.
Related for Turkish Rondo tab