Song name
# A B C D E F G H I J K L M N O P Q R S T U V W X Y Z

Wolfgang Amadeus Mozart - Vio Che Sapete tab

----------------------------------------------------------------------------
	    Vio Che Sapete - Wolfgang Amaedus Mozart
----------------------------------------------------------------------------


Tabbed by: Dave S. 
Email: prime-prine@hotmail.com

Tuning: Standard


  
E||----------------------|----------------------|--0---------------0---1-|
B||--1-------------------|--3-------------------|------------1---3-------|
G||------------0----0----|------------0---------|-------0----------------|
D||-------2--------------|-------0---------0----|------------2-----------|
A||--3-------------------|--2-------------------|--3---------------------|
E||----------------------|----------------------|------------------------|

     
----------------------|--0---------1----2----|--3-------0------------|
--3-------------------|----------------------|-------------1---------|
-----------------0----|-------0--------------|-------0---------------|
------------0---------|----------------------|-------------2---------|
-------2--------------|--3-------------------|--3---------------3----|
--3-------------------|----------------------|-----------------------|

   
-----------------0----|--1-------------------|--3----0----3----0----|
--3---------4---------|-----------------0----|----------------------|
-------0--------------|------------0---------|------------0---------|
----------------------|-------0--------------|----------------------|
--2-------------------|----------------------|--3-------------------|
----------------------|--3-------------------|----------------------|

        
-------1---------1----|----------------------0-|---------------------|
--3---------3---------|--1---------0---1-3-----|--1------------------|
----------------------|------------------------|-------0-------------|
--3---------0---------|-------2----------------|---------------------|
----------------------|------------------------|--3---------3--------|
----------------------|--3---------3-----------|---------------------|

    
----------------------|--0--2--3--0------------|-----------------------|
--3---------3----3----|--1-----------3---------|----------0--1----3----|
------------0---------|--0---------------------|--2--------------------|
-------0--------------|-------------------0----|-------0----------0----|
----------------------|------------------------|-----------------------|
--3-------------------|--------------3---------|--2----------2---------|

   
----------------------|--0---------2----2----|--3-------0------------|
--1----0--------------|----------------------|-------------0---------|
-----------------0----|-------0--------------|-------0----------0----|
------------0---------|-----------------1----|-------------2---------|
----------------------|--3---------2---------|-----------------------|
--3-------------------|----------------------|--0--------------------|

    
----------0------------|----------------------|-----------------3----|
--0----------3----2----|--3-------------------|--3---------3---------|
-------0---------------|----------------------|-------0--------------|
------------------2----|-------0---------0----|----------------------|
-------------0---------|------------3---------|--2-------------------|
--0--------------------|--2-------------------|----------------------|

     
--2-------------------|----------------------|----------------------|
-------3----1---------|--0--------------1----|--0-------------------|
-----------------2----|------------0---------|-------2---------2----|
--0---------0---------|-------0---------2----|--0----4---------4----|
----------------------|------------3---------|------------3---------|
----------------------|--3-------------------|----------------------|

   
---------------0--2--3--|--3--2--0---------------|----------------------|
--3---------3-----------|-----------3--1---------|----------------------|
-------0----0-----------|------------------------|--3---------2----0----|
------------------------|--0----------------0----|-------0--------------|
--2---------------------|------------------------|----------------------|
------------------------|------------------------|--3-------------------|

   
----------------------|----------------------|--1-------------------|
--3-------------------|--3---------3----3----|------------4---------|
------------2---------|----------------------|-------2---------2----|
-------0---------0----|-------3--------------|--3---------3---------|
----------------------|--1-------------------|----------------------|
--2-------------------|----------------------|----------------------|

   
----------------------|----------------------|--1---------1---------|
--4----1--------------|----------------------|-------3---------3----|
------------2---------|-------3--------------|----------------------|
--3--------------1----|--0---------3----0----|----------------------|
----------------------|--1-------------------|--1---------1---------|
----------------------|----------------------|----------------------|

     
----------------------|------------------------|----------------------|
--1----4----1----4----|------------3--1--------|----------------------|
------------0---------|--3------------------3--|--3-------------------|
--1-------------------|-------0----3-----3-----|-------0---------0----|
----------------------|------------------------|--1---------1---------|
----------------------|--1---------------------|----------------------|

    
----------------------|-----0--1--0------------|--1---------0---------|
--3---------3----3----|--3-----------3---------|-------0---------3----|
----------------------|-------------------2----|-------1---------1----|
-------3--------------|--0-----------0---------|--0-------------------|
--1-------------------|------------------------|----------------------|
----------------------|------------------------|------------0---------|

   
----------------------|--1---------0---------|--0-------------------|
----------------------|-------3---------4----|-------0----1---------|
--2----0--------------|-------2--------------|-------1---------2----|
------------3----2----|--0--------------4----|-----------------2----|
--0-------------------|----------------------|------------0---------|
----------------------|------------0---------|--0-------------------|

   
------------0----0----|------------------------|-------------------------|
--0--------------0----|---------------1--1--1--|--3--1--1-------1--1--1--|
-------2---------1----|--2---------------------|-------------------------|
--0-------------------|-------2----------------|--------2----------2-----|
----------------------|--0---------0-----------|--1----------1-----------|
------------0---------|------------------------|-------------------------|

  
-----------------------|--0----------------------|---------------0--0--0-|
------------3----3--3--|-----3--3-------3--3--3--|--0--------------------|
--2--------------------|-------------------------|-----------------------|
-------0---------0-----|--------0----------0-----|-------0---------------|
-----------------------|-------------------------|-----------------------|
--1---------1----------|--2----------2-----------|--3---------3----------|

     
--1--0--0----0----0--0--|------------1----1----|--1-------3--0---------|
--0----------0----------|--1----1----3---------|--0---------------1----|
--1----------1----------|--2---------2---------|--0---------------0----|
------------------------|--2---------0---------|-------0---------------|
------------------------|--0-------------------|-------------3---------|
--0----------0----------|----------------------|--3--------------------|

  
----------------------|----------------------|-----------------------|
--4---------3----1----|----------------------|--1--------------------|
-------2--------------|--0-------------------|------------0-------0--|
-------4--------------|-------3----2----0----|-------2---------0-----|
--3---------0---------|----------------------|--3--------------------|
----------------------|--3-------------------|------------3----------|

    
-----------------0----|--3----0----3----0----|-------1---------1----|
------------1---------|----------------------|--3---------3---------|
-------0--------------|------------0---------|----------------------|
--2-------------------|----------------------|--3---------0---------|
--3-------------------|--3-------------------|----------------------|
----------------------|----------------------|----------------------|

        
----------------------0-|---------------------||
--1---------0---1-3-----|--1------------------||
-------0----------------|-------0-------------||
------------------------|------------2--------||
--3---------------------|--3---------3--------||
------------3-----------|------------3--------||

| /  slide up
| \  slide down
| h  hammer-on
| p  pull-off
| ~  vibrato
| +  harmonic
| x  Mute note
===========================================================================
Tap to rate this tab
# A B C D E F G H I J K L M N O P Q R S T U V W X Y Z