Song name
# A B C D E F G H I J K L M N O P Q R S T U V W X Y Z

Wolfgang Amadeus Mozart - 2nd Movement tab

----------------------------------------------------------------------------
		  2nd Movement - Wolfgang Amadeus Mozart
----------------------------------------------------------------------------


Tabbed by: Dave S. 
Email: prime-prine@hotmail.com

Tuning: (Standard) Drop D

                                                            

E||-----------------2--|--2--0--------------|--------------2--5--|
B||--------3-----------|--2-----3-----------|-----------3--------|
G||--2-----------2-----|--------------2-----|--2-----------------|
D||-----4-----4--------|-----------4-----4--|--------4-----------|
A||--------------------|--0-----------------|-----0--------------|
D||--0-----0-----------|--------0-----------|--0-----------------|

   
--5--3--2-----------|--0--------5--2--5--|--0--------5-----2--|
--------------3-----|--------2-----------|--------2-----0-----|
-----------2-----2--|-----2--------------|-----2--------------|
--------------------|--------------------|--------------0-----|
--0-----------------|--0-----------------|--0-----------------|
--------0-----------|--------------------|--------------------|

   
--------------------|--------------------|-----------------2--|
--------------0-----|-----0--------------|--------3-----------|
--2-----------1---2-|--2-----2--0--------|--2-----------2-----|
--------2-----------|--------------4--2--|-----4-----4--------|
-----4-----4--------|--0-----------------|--------------------|
--2-----------2-----|--------------------|--0-----0-----------|

 
--2--0--------------|--------------2--5--|--5--3--2-----------|
--2-----3-----------|-----------3--------|--------------3-----|
--------------2-----|--2-----------------|-----------2-----2--|
-----------4-----4--|--------4-----------|--------------------|
--0-----------------|-----0--------------|--0-----------------|
--------0-----------|--0-----------------|--------0-----------|

 
--0--------5--2--5--|--0--------5-----2--|--------------------|
--------2-----------|--------2-----0-----|--------------0-----|
-----2--------------|-----2--------------|--2-----------1---2-|
--------------------|--------------0-----|--------2-----------|
--0-----------------|--0-----------------|-----4-----4--------|
--------------------|--------------------|--2-----------2-----|

  
--------------------|--2--------0--------|--------------------|
-----0--------------|--------3-----3--2--|--0-----------------|
--2-----2--0--------|-----2--------------|--------0--2--0-----|
--------------4--2--|--------------------|-----0-----------4--|
--0-----------------|--------------------|--------------------|
--------------------|--0-----------------|--5-----------------|

  
--3--------2--0-----|--------------------|--5--------3--2--0--|
--------0--------3--|--2--------0--------|--------2-----------|
-----0--------------|--------2-----2--0--|-----2--------------|
--------------------|-----2--------------|--4-----------------|
--------------------|--0-----------------|--------------------|
--2-----------------|--------------------|--------------------|

  
-----3--3--------2--|--2p0h3p0-------0-----|--------------------|
--3-----------0-----|--0-------3-----2---3-|--3--0--------------|
-----------0--------|--0----------2--0-----|--------2--0--------|
--------------------|-------------4--------|--------------4--2--|
--2-----2-----------|----------0-----0-----|--------------------|
--------------------|----------------------|--0-----------------|

  
--2--------0--------|--------------------|--3--------2--0-----|
--------3-----3--2--|--0-----------------|--------0--------3--|
-----2--------------|--------0--2--0-----|-----0--------------|
--------------------|-----0-----------4--|--------------------|
--------------------|--------------------|--------------------|
--0-----------------|--5-----------------|--2-----------------|

  
--------------------|--5--------3--2--0--|-----3--3--------2--|
--2--------0--------|--------2-----------|--3-----------0-----|
--------2-----2--0--|-----2--------------|-----------0--------|
-----2--------------|--4-----------------|--------------------|
--0-----------------|--------------------|--2-----2-----------|
--------------------|--------------------|--------------------|

           
--0-7---0-------0-----|--5------------||
--0---8---3-----2---3-|--3------------||
--0----------2--0-----|--2------------||
-------------4--------|--4------------||
----------0-----0-----|--0------------||
----------------------|--0------------||

| /  slide up
| \  slide down
| h  hammer-on
| p  pull-off
| ~  vibrato
| +  harmonic
| x  Mute note
===========================================================================
Tap to rate this tab
# A B C D E F G H I J K L M N O P Q R S T U V W X Y Z