Song name
# A B C D E F G H I J K L M N O P Q R S T U V W X Y Z

Wolfgang Amadeus Mozart - Rondo In C Major tab

----------------------------------------------------------------------------
	        Rondo in C Major - Wolfgang Amadeus Mozart
----------------------------------------------------------------------------


Tabbed by: Dave S. 
Email: prime-prine@hotmail.com

Tuning: (Standard) Capo 3rd Fret

                                                                

E||--0--------0--0--0--|--5-----0-----------|--0-----------------|
B||--------2-----------|-----------2--------|--------2-----------|
G||-----2--------------|-----2-----------2--|-----2-----2--1--2--|
D||--------------------|--------------2-----|--------------------|
A||--0--------0--------|--0--------0--------|--0--------0--------|
E||--------------------|--------------------|--------------------|

  
--------------------|--0--------0--0--0--|--5-----0-----------|
--0-----------------|--------2-----------|-----------2--------|
--------1-----------|-----2--------------|-----2-----------2--|
-----2-----2--------|--------------------|--------------2-----|
-----------------2--|--0--------0--------|--0--------0--------|
--0-----------0-----|--------------------|--------------------|

  
--0-----------------|--------------------|--0--------0--0--0--|
--------2--0-----0--|--------------------|--------2-----------|
-----2--------2-----|--2--------2-----2--|-----2--------------|
--------------------|--------2-----2-----|--------------------|
--0-----------------|-----0--------------|--0--------0--------|
-----------0--------|--------------------|--------------------|

  
--5-----0-----------|--0-----------------|--------------------|
-----------2--------|--------2-----------|--0-----------------|
-----2-----------2--|-----2-----2--1--2--|--------1-----------|
--------------2-----|--------------------|-----2-----2--------|
--0--------0--------|--0--------0--------|-----------------2--|
--------------------|--------------------|--0-----------0-----|

  
--0--------0--0--0--|--5-----0-----------|--0-----------------|
--------2-----------|-----------2--------|--------2-----------|
-----2--------------|-----2-----------2--|-----2-----2--1--2--|
--------------------|--------------2-----|--------------------|
--0--------0--------|--0--------0--------|--0--------0--------|
--------------------|--------------------|--------------------|

   
--------------------|--0--------0--0--0--|--5-----0-----------|
--0-----------------|--------2-----------|-----------2--------|
--------1-----------|-----2--------------|-----2-----------2--|
-----2-----2--------|--------------------|--------------2-----|
-----------------2--|--0--------0--------|--0--------0--------|
--0-----------0-----|--------------------|--------------------|

   
--0-----------------|--------------------|--0--------0--0--0--|
--------2--0-----0--|--------------------|--------2-----------|
-----2--------2-----|--2--------2-----2--|-----2--------------|
--------------------|--------2-----2-----|--------------------|
--0-----------------|-----0--------------|--0--------0--------|
-----------0--------|--------------------|--------------------|

   
--5-----0-----------|--0-----------------|--------------------|
-----------2--------|--------2-----------|--0-----------------|
-----2-----------2--|-----2-----2--1--2--|--------1-----------|
--------------2-----|--------------------|-----2-----2--------|
--0--------0--------|--0--------0--------|-----------------2--|
--------------------|--------------------|--0-----------0-----|

   
--0--------------------|--5-----0-----------|--0-----------------|
--------2--4-5-4-5-4-5-|-----------2--------|--------2--0-----0--|
-----2-----------------|-----2-----------2--|-----2--------2-----|
-----------------------|--------------2-----|--------------------|
--0--------0-----------|--0--------0--------|--0-----------------|
-----------------------|--------------------|-----------0--------|


--------------------|-----------------------|-----5--5--5p4p2p0-----|
-----2--0-----------|-----3--3--5p3p2p0-----|-------------------3p2-|
--2--------2--1-----|-------------------2p1-|--2--------------------|
-----------------4--|--2--------------------|-----------------------|
--0-----------------|-----------------------|--0--------------------|
--------------------|--0--------------------|-----------------------|

   
--0--------------------|----------0------------|
-----3--3--5p3p2p0-----|--------2---2-0--2--3--|
-------------------2p1-|--2---2----------------|
-----------------------|----2------------------|
-----------------------|--0--------------------|
--0--------------------|--------------0--------|


--0--------------------|--5-----0-----------|--0-----------------|
--------2--4h5p4h5p4h5-|-----------2--------|--------2--0-----0--|
-----2-----------------|-----2-----------2--|-----2--------2-----|
-----------------------|--------------2-----|--------------------|
--0--------0-----------|--0--------0--------|--0-----------------|
-----------------------|--------------------|-----------0--------|

 
--------------------|--------------------|--------------------|
-----------0-----0--|--2--------0-----0--|--2-----------------|
--2-----------2-----|--------2-----2-----|--------2--1-----1--|
--------2-----------|-----2--------------|-----2--------4-----|
-----0--------------|--0-----------------|--0-----------------|
-----------0--------|-----------0--------|-----------0--------|

       
------------------||
------------------||
--2--2--2--2------||
-----2--2--2------||
-----0--0--0------||
------------------||

| /  slide up
| \  slide down
| h  hammer-on
| p  pull-off
| ~  vibrato
| +  harmonic
| x  Mute note
===========================================================================
Tap to rate this tab
 
# A B C D E F G H I J K L M N O P Q R S T U V W X Y Z