Song name
# A B C D E F G H I J K L M N O P Q R S T U V W X Y Z

Wolfgang Amadeus Mozart - Piano Sonata In A tab

----------------------------------------------------------------------------
             Piano Sonata in A - Wolfgang Amadeus Mozart
----------------------------------------------------------------------------


Tabbed by: Dave S. 
Email: prime-prine@hotmail.com

Tuning: (Standard) Capo 2nd Fret


   
E|-------------------|-------------------|------------------|
B|--0---1-0--3----3--|------0----1----1--|------------------|
G|--0--------0----0--|--2-----2--2----2--|--0----0--2----2--|
D|--0----------------|-----------0----0--|------------------|
A|------0----2----2--|-------------------|------------------|
E|--3-----3----------|--2-----2----------|--0----0--2----2--|

   
------------------|------------------|------------------|------------------|
--0----3p1-0------|-0---1-0--3----3--|------0----1----1-|----------0----1--|
-----------0----2-|-0--------0----0--|--2-----2--2----2-|--0----0-------2--|
-----------0----0-|-0----------------|-----------0----0-|------------------|
-------3----------|-----0----2----2--|------------------|---------------3--|
--3---------------|-3-----3----------|--2-----2---------|--0----0--3-------|

   
----------------|-------------------|-------------------|------------------|
--0-------------|--0---1-0--3----3--|------0----1----1--|------------------|
--0----2--0-----|--0--------0----0--|--2-----2--2----2--|--0----0--2----2--|
--0----0--0-----|--0----------------|-----------0----0--|------------------|
----------2-----|------0----2----2--|-------------------|------------------|
----------3-----|--3-----3----------|--2-----2----------|--0----0--2----2--|

   
------------------|-------------------|------------------|-----------------|
--0----3p1-0------|--0---1-0--3----3--|------0----1----1-|---------0----1--|
-----------0----2-|--0--------0----0--|--2-----2--2----2-|-0----0-------2--|
-----------0----0-|--0----------------|-----------0----0-|-----------------|
-------3----------|------0----2----2--|------------------|--------------3--|
--3---------------|--3-----3----------|--2-----2---------|-0----0--3-------|

  
------------------|-------0----0-----0--|--3----2-0--0--------|
--0---------------|--3------3--------1--|---------------3--3--|
--0----2--0-------|---------------0-----|-----0---------------|
--0----0--0-------|---------0-----------|------------------0--|
----------2-------|-----2------3--------|--3------------2-----|
----------3-------|--3------------------|------------3--------|

  
--------------------|-------------------|-------------------|
--3--0-----3--1-----|--3--0-----0-------|--0---1-0--3----3--|
--------0--------2--|--------0--0----2--|--0--------0----0--|
--------------------|-----------0----0--|--0----------------|
--------------------|--------4----------|------0----2----2--|
--3--------2--------|--3----------------|--3-----3----------|

  
-------------------|------------------|------------------|
------0----1----1--|----------0----1--|--0------------0--|
--2-----2--2----2--|--0----2-------2--|--0----2--2----0--|
-----------0----0--|------------------|--0----0--4-------|
-------------------|---------------3--|------------------|
--2-----2----------|--0----2--3-------|----------3-------|

       
---------------0h2h3-|------------------||
--0----1--3----------|-------0----------||
---------------------|--0----0h2-0------||
---------------------|--0----0---0------||
-------0--2----3-----|------------------||
--3------------------|-----------3------||

| /  slide up
| \  slide down
| h  hammer-on
| p  pull-off
| ~  vibrato
| +  harmonic
| x  Mute note
===========================================================================
Tap to rate this tab
# A B C D E F G H I J K L M N O P Q R S T U V W X Y Z