Song name
# A B C D E F G H I J K L M N O P Q R S T U V W X Y Z

Wolfgang Amadeus Mozart - Piano Concerto No 21 In C Major tab

----------------------------------------------------------------------------
	Piano Concerto No. 21 in C Major - Wolfgang Amadeus Mozart
----------------------------------------------------------------------------


Tabbed by: Dave S. 
Email: prime-prine@hotmail.com

Tuning: (Down 1 Step) Drop C


   
D||--------------------2-----------------|
A||--3--------3-----------3--3--------3--|
F||-----2--2--------2-----2--2-----2-----|
C||-----4--4-----0-----0--------0--------|
G||--------------------------------------|
C||--0--------4--------------------------|

  
--5--------------------------3p2p0---|----------0--------------------------|
-----7--7-----7--7-----7--7--------3-|-4-----------2--2-----2--2-----2--2--|
-----7--7-----7--7-----7--7----------|----0--0-----0--0-----0--0-----0--0--|
--------------------0----------------|----2--2--------------------2--------|
-----------0-------------------------|-0--------0--------4-----------------|
--0----------------------------------|-------------------------------------|

   
-----------------------------0--------|--3-----------------3--7--5--3--|
--------------------2-----------2--2--|-----2--2--2--2--2--------------|
--2--------------------0--0-----0--0--|-----0--0--0--0--0--------------|
-----2--2-----2--2-----2--2-----------|--------------------2-----------|
--0--------4--------0--------0--------|--0-----------------------0-----|
--------------------------------------|--------------------------------|

 
--1-----2--2--------------------------|--5---------------------------------|
--------------3--3-----3--3-----3--3--|-----4--4--4--4--4-----4--4--4--4---|
-----2--------2--2-----2--2-----2--2--|-----5--5--5--5--5-----5--5--5--5---|
--0--------------------------0--------|------------------------------------|
--------------------0-----------------|------------------------------------|
-----------0--------------------------|--4-----------------4--------------4|

  
--------------------------------------|--7---------------------------------|
-----0--------0--0--0--0--0--0--0--0--|-----6--6--6--6--6-----6--6--6--6---|
-----0--------0--0--0--0--0--0--0--0--|-----7--7--7--7--7-----7--7--7--7---|
--------------------------------------|------------------------------------|
--0-----------------------------------|------------------------------------|
--------5--5--------------------------|--6-----------------6--------------6|

  
-----------5-----------------3p2p0---|
-----7--7-----7--7-----7--7--------3-|
-----7--7-----7--7-----7--7----------|
-----------0-------------------------|
--0-----------------0----------------|
-------------------------------------|

 
---------------------------------------------|
--3--2---3---2---3---2--3---2---3---2-----2--|
--2---------------------2--------------4-----|
--2---------------------2--------------------|
--0---------------------0--------------------|
---------------------------------------------|

  
--------------------2----------------|--3----------------------------------|
--3--------------------3--3--3--3--3-|-----2--2--2--2--2-------------------|
-----2--2--2--2--2-----2--2--2--2--2-|-----3--3--3--3--3--3----------------|
-----4--4--4--4--4--0----------------|-----------------------4--4--4--4--4-|
-------------------------------------|-------------------------------------|
--0----------------------------------|--2-----------------4----------------|

  
--2--------2-----------------0--------|--------------------------0--2--|
-----3--3-----3--3-----3--------2-----|--0-----2--3-----0-----3--------|
-----4--4-----4--4--------2--------3--|--------------------------------|
-----------4--------------------------|-----0--------0-----------------|
--2-----------------2-----------------|--2--------2--------2-----------|
-----------------------------4--------|--------------------------------|

  
--3--------3----------0-0-------0---|-----------------------------2--|
-----2--2-----2--2--------2-2-------|--------------------------3-----|
-----0--0-----0--0------------2---0-|--2-----0--------------2--------|
-----------2------------------------|-----------4-----0--------------|
--0-----------------0---------------|-----0--------0-----------------|
------------------------------------|--0--------0--------0-----------|

E   
--5-----0--0--------------------------|--------------------------------|
--------------2--2-----2--2--3-----2--|-----------0-----------0--0--0--|
-----0--------0--0-----0--0-----0-----|--3-----------------------------|
--------------------2-----------------|--------0--------0--------------|
--0--------0-----------------0--------|-----2--------2-----2-----------|
--------------------------------------|--0--------0--------------------|

   
-----------------0--2-----4--5-------|----------0-----------------0-------|
--0-----2--4-----------0-------------|-------------0--0--1-----------1--1-|
--------------4--------------------2-|--2p1--------1--1-----2--2-----2--2-|
-----------4--------1----------------|------4p2-------------2--2----------|
-----2--------------------------2----|-------------------0--------3-------|
--1----------------------------------|--2---------------------------------|

  
-------------------------------------|-0----------------------------------|
--6--------------------0-----0--1--3-|----1--1--1--1--1--------------0--1-|
-----4--4--4--4--4--------3----------|----0--0--0--0--0-----2--1--2-------|
-----5--5--5--5--5-------------------|------------------------------------|
-------------------------------------|------------------------------------|
--5-----------------3----------------|-2-----------------3----------------|

   
-----------1-------------------------|------------------------------------|
--3-----------0--0-----------------0-|-1----------------------------------|
-----1--1-----1--1-----1-----1--2----|----2--2--2--2--2--2-----------1--2-|
-----3--3--0--------------4----------|----1--1--1--1--1--1--4--3--4-------|
-------------------------------------|------------------------------------|
--2-----------------2----------------|-2----------------------------------|

   
--------------------------------------|--------------------4--2--0-----|
--0-----------------0-----------------|-----------------------------3--|
-----1--1--1--1--1-----------------1--|--2--------------2--------------|
-----2--2--3--3--3-----2--1--2--4-----|--------2-----2-----0-----------|
--------------------------------------|-----0-----4--------------2-----|
--2-----------------2-----------------|--------------------------------|

   
-----------------------------0-------|------------------------------------|
--2-----0--0-----------------------0-|-3--------2-----------------------0-|
-----------------2--------2-----1----|-------1--------2--------2----------|
-----2--------2--------2-------------|----2--------2--------2--------0----|
-------------------------------------|----------0--------0--------2-------|
--2--------2--------2--------2-------|-2----------------------------------|

   
--5-----------------4--2--0-----|-----------------------------0--------|
--------2--------2-----------3--|--2-----0--0-----------------------0--|
-----2--------2-----------------|-----------------2--------2-----1-----|
--------------------0-----------|-----2--------2--------2--------------|
--0--------0--------------2-----|--------------------------------------|
--------------------------------|--2--------2--------2--------2--------|

              
--------------------0--------||
--------------------2--------||
--2--------------2--2--------||
-----2--------2--------------||
--0-----0--4--------0--------||
-----------------------------||

| /  slide up
| \  slide down
| h  hammer-on
| p  pull-off
| ~  vibrato
| +  harmonic
| x  Mute note
===========================================================================
Tap to rate this tab
# A B C D E F G H I J K L M N O P Q R S T U V W X Y Z