Song name
# A B C D E F G H I J K L M N O P Q R S T U V W X Y Z

Wolfgang Amadeus Mozart - Papagenos Song tab

----------------------------------------------------------------------------
	        Papageno's Song - Wolfgang Amadeus Mozart
----------------------------------------------------------------------------


Tabbed by: Dave S. 
Email: prime-prine@hotmail.com

Tuning: Standard



E|------0-----|--------------------------|--------0----------------|
B|---------3--|--1-----1-----3--1--0--1--|--3-----------3----3--0--|
G|------------|-----0-----0--------------|-----0-----0-------------|
D|------------|--------2-----------------|-------------------------|
A|------------|--3-----------3-----------|--2-----3-----2----------|
E|------------|--------------------------|-------------------------|

  
-------------3-------3--|-0-------------------0--|-------------------------|
------------------------|-------3-----1----1-----|-3--1--0--1--3--1--0--1--|
--0-------0-------0-----|----0-----0--0----------|-------------------------|
-------0----------------|-------------2----------|-------0-----------0-----|
-------------2----------|-3-----2-----3----------|-------------------------|
--3---------------------|------------------------|-3-----------3-----------|

  
--------0---------------|--3-------3-------------|-------------------------|
--3-----------3----3----|--3----------3-------3--|--0----------------------|
-----0-----0------------|--0---------------------|--------2-----0-------0--|
------------------------|-------0----------0-----|-----0-----0-------0-----|
--2-----3-----2---------|------------------------|-------------------------|
------------------------|--3----------2----------|--3-----2-----3----------|

  
--------------0----------|--0----------------3---|-------------------------|
--3-----3--------3--1--3-|--------3-----1--------|-0--------0--3--1--0--1--|
-----0-----0-------------|-----0-----0--0--------|----0--------------------|
-------------------------|--------------2--------|-------0-----------------|
--------2----------------|--3-----2-----3--------|-------------------------|
--3-----------3----------|-----------------------|-3-----------------------|

   
--------0---------------|-----------0h1h3----1----|
--3-----------3----0----|--1----1h3----------0----|
-----0-----0-------0----|--0-----------------0----|
-------------------3----|--2-----------------0----|
--2-----3-----2---------|--3----------------------|
-------------------3----|--------------------3----|

 
--0--------0h1h3---------|--0--------0--1--0-----0--|
--1----1h3----------1h3--|-----1--------------3-----|
--0----------------------|--------0-----------------|
-------------------------|--------------------------|
--3----------------------|--3-----------------------|
-------------------------|--------------------------|

 
--1----3----5----1----|--------------------------|------------------------|
--1-----------------3-|--0--------0--1--0-----0--|--1----3--0--1----1--3--|
--2-------------------|-----0--------------2-----|--0----------0----------|
--3----2----3---------|--------0-----------------|--2----------2----------|
----------------------|--------------------------|--3----------3----------|
----------------------|--3-----------------------|-------3----------------|

   
--0--------0--1--0-----0--|--1----3----5----1-----|-------------------------|
-----1--------------3-----|--1-----------------3--|-0--------0--1--0-----0--|
--------0-----------------|--2--------------------|----0--------------2-----|
--------------------------|--3----2----3----------|-------0-----------------|
--3-----------------------|-----------------------|-------------------------|
--------------------------|-----------------------|-3-----------------------|

  
-----0------------------0h1h3----1----0--------0--1--|
--1-----3--0--1----1-3-----|-----0----1----1-3-------|
--------------0------------|-----0----0--------------|
--------------2------------|-----0-------------------|
--3-----------3------------|----------3--------------|
--------3------------------|-----3-------------------|

       
--3--------------------|--------------------------|--0------------------|
-------0----1----1-----|--------------------------|--1---------1--------|
-------0----0-------0--|-----------0--0-----------|--0---------0--------|
-------3----2----------|--2-----2--------3--2--0--|-------2----2--------|
------------3----------|-----3--------------------|--3---------3--------|
-------3---------------|--------------------------|------------3--------|

| /  slide up
| \  slide down
| h  hammer-on
| p  pull-off
| ~  vibrato
| +  harmonic
| x  Mute note
===========================================================================
Tap to rate this tab
 
# A B C D E F G H I J K L M N O P Q R S T U V W X Y Z