Song name
# A B C D E F G H I J K L M N O P Q R S T U V W X Y Z

Wolfgang Amadeus Mozart - Minuet In G Major tab

----------------------------------------------------------------------------
	        Minuet in G Major - Wolfgang Amadeus Mozart
----------------------------------------------------------------------------


Tabbed by: Dave S. 
Email: prime-prine@hotmail.com

Tuning: Standard



E|-----7-----|-----------------|------------5--2--|-----------------|
B|--------8--|--0----1----3----|--3----1----------|-------0----1----|
G|-----------|--0----2----4----|--4----2----------|--2----0----2----|
D|-----------|-----------------|------------------|--4--------------|
A|-----------|-----------------|------------------|-----------------|
E|-----------|-----------------|------------------|-----------------|

    
------------7-----|--0----3--0-------|--0-----------------|
--1----0-------8--|-------------2----|-----2--------------|
--2----0----------|--0---------------|--------2p--0-------|
------------------|-------------2----|---------------4----|
------------------|------------------|--4-----0------5----|
------------------|------------------|--------------------|

   
-------------------|------------7-----|----------------|------------5--2--|
--0----------------|---------------8--|--0----1----3---|--3----1----------|
-----2p0-----------|------------------|--0----2----4---|--4----2----------|
----------4----2---|--0----0----------|----------------|------------------|
----------0----0---|------------------|----------------|------------------|
--3----------------|------------------|----------------|------------------|

    
-----------------|------------7-----|--0----3--0-------|--0---------------|
-------0----1----|--1----0-------8--|-------------2----|-----2------------|
--2----0----2----|--2----0----------|--0---------------|--------2p0-------|
--4--------------|------------------|-------------2----|-------------4----|
-----------------|------------------|------------------|--4-----0----5----|
-----------------|------------------|------------------|------------------|

 
---------------------|----------------|-------1----0---|------------------|
--0------------------|------------3p0-|----------------|--3----1----------|
-----2p--0-----------|----------------|--1-------------|------------5--2--|
------------4----2---|--0----0--------|-------0--------|------------------|
------------0----0---|----------------|------------3---|--2----0----0-----|
--3------------------|----------------|--0-------------|------------------|

  
-------0--------|------------0-----|-----------------|--------------------|
------------3---|--1----0-------1--|-------1---------|---------1--1--0----|
----------------|------------------|--2-------2------|---------------0----|
--4-------------|------------------|-------------4---|--0h--4-------------|
--5----3----2---|--0---------------|--3----------0---|--------------------|
----------------|-------3----------|-----------------|--------------------|

   
--0-----------------|----------------|-------1----0----|------------------|
-----1--------------|-----------3p0--|-----------------|--3----1----------|
--------2--0--------|--0-------------|--1--------------|------------5--2--|
-----------0----4---|----------------|-------0---------|------------------|
--3-------------5---|----------------|------------3----|--2----0----0-----|
--------------------|--3-------------|--0--------------|------------------|

    
-------0---------|------------0-----|------------------|------------------|
------------3----|--1----0-------1--|-------1----------|-------1--1--0----|
-----------------|------------------|--2-------2-------|-------------0----|
--4--------------|------------------|-------------4----|--0h4-------------|
--5----3----2----|--0---------------|--3----------0----|------------------|
-----------------|-------3----------|------------------|------------------|

 
--0------------------|----------------|-----------------|-----------------|
-----1---------------|----------1-----|-----------------|------------3p0--|
--------2--0---------|--0----------0--|-----------------|-----------------|
-----------0----4----|----------------|--2----2----0h2--|--2----3---------|
--3-------------5----|----------------|--3----3----2----|--3----5---------|
---------------------|--3-------------|-----------------|-----------------|

  
-----------------|-----------0-------|-------5------------|
-----------------|-------------3-1-0-|------------3-1-0---|
-----------------|-------------------|--2---------------2-|
--3----3----2p0--|--0---2------------|--------------------|
--2----2----2----|--3----------------|--------------------|
-----------------|-------------------|--2-----------------|

 
-------3------------|--0-------------|------------------|-----------------|
------------3p0-----|-------3--------|------------1-----|-----------------|
--0-------------2p0-|----------------|--2----0-------0--|-----------------|
--------------------|-------0----4---|------------------|--2----2----0h2--|
------------2-------|--3---------5---|------------------|--3----3----2----|
--0-----------------|----------------|--3---------------|-----------------|


-----------------|-----------------|-----------0-------|
------------3p0--|-----------------|-------------3-1-0-|
-----------------|-----------------|-------------------|
--2----3---------|--3----3----2p0--|--0---2------------|
--3----5---------|--2----2----2----|--3----------------|
-----------------|-----------------|-------------------|

  
-------5------------|-------3------------|--0--------------|
------------3-1-0---|------------3p0-----|-------3---------|
--2---------------2-|--0-------------2p0-|-----------------|
--------------------|--------------------|-------0----4----|
--------------------|------------2-------|--3---------5----|
--2-----------------|--0-----------------|-----------------|

 
------------3p0--|----------------0--|--0----1----1----|-----------------|
-----------------|--2--2--2----3-----|---------------3-|--0----0----1--3-|
--2----0---------|--------0----------|-----------------|-----------------|
-----------------|-------------3-----|--2----0----0----|-------3----2----|
-----------------|--0----------------|-----------------|-----------------|
--3--------------|-------------------|-----------------|--3--------------|

 
-------0----5p3---0-|-------10----3p1p0---|-------8----3p1p0---|
--3-------------6---|--3----------------3-|--1---------------3-|
--------------------|--4------------------|--2-----------------|
--0-----------------|---------------------|------------2-------|
-------3------------|---------------------|--------------------|
--------------------|---------------------|--------------------|

  
--5----3--------|------------3--0--|----------------0-|--0----1----1-----|
------------0---|--3----1----------|--2--2--2----3----|---------------3--|
-------0--------|------------------|--------0---------|------------------|
--3-------------|------------------|-------------3----|--2----0----0-----|
----------------|--3---------------|--0---------------|------------------|
------------3---|------------------|------------------|------------------|

  
------------------|-------0----5p3---0-|-------10----3p1p0---|
--0----0----1--3--|--3-------------6---|--3----------------3-|
------------------|--------------------|--4------------------|
-------3----2-----|--0-----------------|---------------------|
------------------|-------3------------|---------------------|
--3---------------|--------------------|---------------------|

          
-------8----3p1p0---|--5----3---------|------------7-----|-------------||
--1---------------3-|------------0----|--3----1-------8--|-------------||
--2-----------------|-------0---------|------------------|--0----------||
------------2-------|--3--------------|------------------|--0----------||
--------------------|-----------------|--3---------------|-------------||
--------------------|------------3----|------------------|--3----------||

| /  slide up
| \  slide down
| h  hammer-on
| p  pull-off
| ~  vibrato
| +  harmonic
| x  Mute note
===========================================================================
Tap to rate this tab
# A B C D E F G H I J K L M N O P Q R S T U V W X Y Z