Song name
# A B C D E F G H I J K L M N O P Q R S T U V W X Y Z

Wolfgang Amadeus Mozart - Minuet In F Major tab

----------------------------------------------------------------------------
	        Minuet in F Major - Wolfgang Amadeus Mozart
----------------------------------------------------------------------------


Tabbed by: Dave S. 
Email: prime-prine@hotmail.com

Tuning: (Standard) Capo 8th Fret


  
E||------9--0----0---|--2--5-----------|-----0-----------|----------------|
B||--10--------------|--------3----3---|--2--------------|----------------|
G||------------------|-----------------|--------2----1---|--1---------2---|
D||------------------|--0----------0---|--2--------------|----------------|
A||---0----------4---|-----------------|-----------------|------------0---|
E||------------------|-----------------|-------------0---|-------0--------|

  
-----------------|-----------------|--------------------|----------------|
--------0----0---|--------2----2---|--------0--3----2---|--2---------0---|
-----1-----------|-----2-----------|-----1--------------|------------1---|
--2--------------|--2--------------|--2-----------------|--2-------------|
-----------------|-----------------|----------------0---|-------2--------|
--0--------------|--0--------------|--0-----------------|------------0---|

  
------9--0----0----|--2--5------------|-----0------------|----------------|
--10---------------|--------3----3----|--2---------------|----------------|
-------------------|------------------|--------2----1----|--1---------2---|
-------------------|--0----------0----|--2---------------|----------------|
---0----------4----|------------------|------------------|------------0---|
-------------------|------------------|-------------0----|-------0--------|

   
-----------------|-----------------|--------------------|----------------|
--------0----0---|--------2----2---|--------0--3----2---|--2---------0---|
-----1-----------|-----2-----------|-----1--------------|------------1---|
--2--------------|--2--------------|--2-----------------|--2-------------|
-----------------|-----------------|----------------0---|-------2--------|
--0--------------|--0--------------|--0-----------------|------------0---|

   
--0--3------------|-----2------------|-----0------------|----------------|
--------2----2----|--3-----0----0----|--2---------------|------------0---|
------------------|------------------|--------3----3----|--3-------------|
------------------|------------------|------------------|----------------|
--1---------------|--2---------------|------------------|------------2---|
------------------|------------------|--0-----2---------|-------2--------|

   
-----2------------|-----0------------|------------------|----------------|
--3-----0----0----|--2---------------|--0--3------------|----------------|
------------------|--------2----2----|--------1----1----|--1---------2---|
------------------|------------------|--0-----2---------|-------2--------|
------------------|--0---------------|------------------|------------0---|
--4---------------|------------------|-------------0----|----------------|

   
------9--0----0----|--2--5------------|-----0------------|---------------|
--10---------------|--------3----3----|--2---------------|---------------|
-------------------|------------------|--------2----1----|--1--------2---|
-------------------|--0----------0----|--2---------------|---------------|
---0----------4----|------------------|------------------|---------------|
-------------------|------------------|-------------0----|--2------------|

     
------9--0----0----|--2--5------------|-----0-----------|----------------|
--10---------------|--------3----3----|--2--------------|----------------|
-------------------|------------------|--------2----1---|--1---------2---|
-------------------|--0----------0----|--2--------------|----------------|
---0----------4----|------------------|-----------------|------------0---|
-------------------|------------------|-------------0---|-------0--------|

| /  slide up
| \  slide down
| h  hammer-on
| p  pull-off
| ~  vibrato
| +  harmonic
| x  Mute note
===========================================================================  
Tap to rate this tab
# A B C D E F G H I J K L M N O P Q R S T U V W X Y Z