Song name
# A B C D E F G H I J K L M N O P Q R S T U V W X Y Z

Wolfgang Amadeus Mozart - German Dance tab

----------------------------------------------------------------------------
	          German Dance - Wolfgang Amadeus Mozart
----------------------------------------------------------------------------


Tabbed by: Dave S. 
Email: prime-prine@hotmail.com

Tuning: (Standard) CAPO 5th Fret



E|--3------------|---------------|---------------3--|--3--2--0--------3--|
B|-------3-------|--3----0-------|--0---------3-----|--3--------3--3-----|
G|--0------------|---------------|-------0----------|--2-----------0-----|
D|-------0-------|--0------------|------------------|--0-----------------|
A|---------------|-------2-------|--2---------------|--------------------|
E|---------------|---------------|-------3----------|--------------------|

    
--3--2--0--------3--|--3--2--0-----0--2--|--3----------|--3--------------|
--3--------3--3-----|--3--------3--------|--0----------|-------3---------|
--2-----------0-----|--2-----------------|--0----------|--0--------------|
--0-----------------|--0-----0-----0-----|-------------|-------0---------|
--------------------|--------------------|-------------|-----------------|
--------------------|--------------------|-------------|-----------------|

  
-----------------|---------------3--|--3--2--0--------3--|
--3----0---------|--0---------3-----|--3--------3--3-----|
-----------------|-------0----------|--2-----------0-----|
--0--------------|------------------|--0-----------------|
-------2---------|--2---------------|--------------------|
-----------------|-------3----------|--------------------|

    
--3--2--0--------3--|--3--2--0-----0--2--|--3----------|--5----5----5----|
--3--------3--3-----|--3--------3--------|--0----------|-----------------|
--2-----------0-----|--2-----------------|--0----------|-----------------|
--0-----------------|--0-----0-----0-----|-------------|--0--------------|
--------------------|--------------------|-------------|-------4----0----|
--------------------|--------------------|-------------|-----------------|

  
--2------------2--|--5--5--5--5--5--5--|--2------------3--|
--3----3----3-----|--------------------|--3----3----3-----|
--2---------------|--------------------|--2---------0-----|
--0---------------|--0-----------------|--0---------------|
------------------|--------4-----0-----|------------------|
------------------|--------------------|------------------|

  
--3--2--0--------3--|--3--2--0--------3--|--3--2--0-----0--2--|
--3--------3--3-----|--3--------3--3-----|--3--------3--------|
--2-----------0-----|--2-----------0-----|--2-----------------|
--0-----------------|--0-----------------|--0-----0-----0-----|
--------------------|--------------------|--------------------|
--------------------|--------------------|--------------------|

   
--3------------|--5----5----5----|--2------------2--|--5--5--5--5--5--5--|
--0------------|-----------------|--3----3----3-----|--------------------|
--0------------|-----------------|--2---------------|--------------------|
---------------|--0--------------|--0---------------|--0-----------------|
---------------|-------4----0----|------------------|--------4-----0-----|
---------------|-----------------|------------------|--------------------|

  
--2------------3--|--3--2--0--------3--|--3--2--0--------3--|
--3----3----3-----|--3--------3--3-----|--3--------3--3-----|
--2---------0-----|--2-----------0-----|--2-----------0-----|
--0---------------|--0-----------------|--0-----------------|
------------------|--------------------|--------------------|
------------------|--------------------|--------------------|

   
--3--2--0-----0--2--|--3-------------|--------------0-----|
--3--------3--------|--0-------------|--1--------------1--|
--2-----------------|--0-------------|-----0-----0--------|
--0-----0-----0-----|----------------|--------2-----2-----|
--------------------|----------------|--3-----------------|
--------------------|----------------|--------------------|

  
--------------1-----|--1-----------------|--------0-----3-----|
--0-----3-----------|-----0-----0--3--0--|--1-----------------|
-----0-----0-----0--|--------0-----------|-----0-----0-----0--|
--0-----0-----0-----|--------------------|--------2-----2-----|
--------------------|--------------------|--3-----------------|
--------------------|--3-----------------|--------------------|

  
--3-----------0-----|--------------1-----|--1-----------------|
-----------------1--|--0-----3-----------|-----0-----0--3--0--|
-----0-----0--------|-----0-----0-----0--|--------0-----------|
--------2-----2-----|--0-----0-----0-----|--------------------|
--3-----------------|--------------------|--------------------|
--------------------|--------------------|--3-----------------|

  
-------------------|--------------0-----|--------------1-----|
--1----------------|--1--------------1--|--0-----3-----------|
-----0-----0-------|-----0-----0--------|-----0-----0-----0--|
--------2----------|--------2-----2-----|--0-----0-----0-----|
--3-----------3----|--3-----------------|--------------------|
-------------------|--------------------|--------------------|

  
--1-----------------|--------0-----3-----|--3-----------0-----|
-----0-----0--3--0--|--1-----------------|-----------------1--|
--------0-----------|-----0-----0-----0--|-----0-----0--------|
--------------------|--------2-----2-----|--------2-----2-----|
--------------------|--3-----------------|--3-----------------|
--3-----------------|--------------------|--------------------|

    
--------------1-----|--1-----------------|-------------------|
--0-----3-----------|-----0-----0--3--0--|--1----------------|
-----0-----0-----0--|--------0-----------|-----0-----0-------|
--0-----0-----0-----|--------------------|--------2----------|
--------------------|--------------------|--3-----------3----|
--------------------|--3-----------------|-------------------|

  
--------------1--5--|--3-----0-----------|--------------1--5--|
--1-----------------|--------------1-----|--1-----------------|
-----2-----2--------|-----0-----0-----0--|-----2-----2--------|
--------3-----------|--------2-----2-----|--------3-----------|
--3-----------------|--3-----------------|--3-----------------|
--------------------|--------------------|--------------------|

   
--3-----0-----------|--------------------|--------0-----3-----|
--------------1-----|--0-----------3--0--|--1-----------------|
-----0-----0-----0--|-----0-----0--------|-----0-----0-----0--|
--------2-----2-----|--------0-----------|--------2-----2-----|
--3-----------------|--------------------|--3-----------------|
--------------------|--3-----------------|--------------------|

  
--1-----------------|-------------------|--------------1--5--|
--------------3--0--|--1----------------|--1-----------------|
-----0-----0--------|-----0-----0-------|-----2-----2--------|
--------0-----------|--------2----------|--------3-----------|
--------------------|--3-----------3----|--3-----------------|
--3-----------------|-------------------|--------------------|

   
--3-----0-----------|--------------1--5--|--3-----0-----------|
--------------1-----|--1-----------------|--------------1-----|
-----0-----0-----0--|-----2-----2--------|-----0-----0-----0--|
--------2-----2-----|--------3-----------|--------2-----2-----|
--3-----------------|--3-----------------|--3-----------------|
--------------------|--------------------|--------------------|

.             
--------------------|--------0-----3-----|--1-----------------|--0-------||
--0-----------3--0--|--1-----------------|--------------3--0--|--1-------||
-----0-----0--------|-----0-----0-----0--|-----0-----0--------|--0-------||
--------0-----------|--------2-----2-----|--------0-----------|--2-------||
--------------------|--3-----------------|--------------------|--3-------||
--3-----------------|--------------------|--3-----------------|--3-------||

| /  slide up
| \  slide down
| h  hammer-on
| p  pull-off
| ~  vibrato
| +  harmonic
| x  Mute note
===========================================================================
Tap to rate this tab
 
# A B C D E F G H I J K L M N O P Q R S T U V W X Y Z