Song name
# A B C D E F G H I J K L M N O P Q R S T U V W X Y Z

Wolfgang Amadeus Mozart - Deh Vieni Alla Finestra tab

----------------------------------------------------------------------------
	    Deh Vieni Alla Finestra - Wolfgang Amadeus Mozart
----------------------------------------------------------------------------


Tabbed by: Dave S. 
Email: prime-prine@hotmail.com

Tuning: Standard

                                                         

E|-----------------------|------0h2-3p0----0--3--|
B|------0h1-3p0----0--3--|--1h3---------1--------|
G|--0h2---------0--------|-----------------------|
D|-----------------------|-----------------------|
A|-----------------------|--3-----------3--------|
E|--3-----------3--------|-----------------------|

  
--------------------------|----------------------|
------------1-1p0-1-------|----0--------------3--|
--------0h2---------2---2-|--0---0---------------|
--0h2h4-------0-------4---|--------0---0---------|
--------------------------|----------2-----------|
--------------------------|--3-----------3-------|

   
-----------------------|------0h2-3p0----0--3--|
------0h1-3p0----0--3--|--1h3---------1--------|
--0h2---------0--------|-----------------------|
-----------------------|-----------------------|
-----------------------|--3-----------3--------|
--3-----------3--------|-----------------------|

 
---------------------------|----------------------|-----3--3--3-----2--|
-------------1-1p0-1-------|----0--------------3--|--3-----------3-----|
---------0h2---------2---2-|--0---0---------------|--------------0-----|
--0h2h-4-------0-------4---|--------0---0---------|--------------------|
---------------------------|----------2-----------|-----------2--------|
---------------------------|--3-----------3-------|--3-----------------|

  
--0-----0--------0--|--------------0-----|--------------------|
-----------------1--|--3-----------------|--3-----1--0-----3--|
-----0--------0-----|--------5--------5--|--------0-----------|
-----------2--------|-----4--------------|-----0--------0-----|
--3-----------------|--5--------5--------|--------------------|
--------------------|--------------------|--3--------3--------|

  
-----3--3--3-----2--|--0--------2--------|--------3--2----3-0--|
--3-----------3-----|-----------------3--|--3-----------3---2--|
--------------0-----|--------2-----2-----|-----0--------2------|
--------------------|-----2-----0--------|---------------------|
-----------2--------|--4-----------------|--2--------0------0--|
--3-----------------|--------------------|---------------------|

   
--------------------------|--------------------------|----5p2---------------|
--3-----3-----------------|------0-------------------|--------3----------3--|
------2---2-------2-------|----0---0---0-----2-------|----------2-----------|
----4-------4---4---4---4-|--0-------0-----2---2---2-|--0---------4-0-------|
--5-----------5-------5---|--------------4-------4---|----------------------|
--------------------------|--------------------------|----------------------|

   
--------------------|-----------1--------|-----------3----5-1--|
--3-----3--3--1--0--|--1--------------3--|--3-----3-----0------|
--------4--1--------|--------2-----2-----|--5-----4--0---------|
-----4--------------|-----2-----0--------|-----5---------------|
--2-----------------|--0-----------------|---------------------|
-----------0--------|--------------------|--3------------------|

 
--0--------------------|--3--------0---------|--3-----------------------|
--------------------1--|--------3-------3-1--|------0---0---4-----------|
----------0---------0--|-----0--------0------|----0---0---0-----2---2---|
----0h2h3---2----2-----|---------------------|----------------4---4---4-|
--3-----------3--------|--2--------3---------|--2-----------2-----------|
-----------------------|---------------------|--------------------------|


--0---2---3------------|--------------------------|
-------------------0---|----------0---------0-1---|
----0---0----0-------2-|--0---------0---0h2-----2-|
----------------2--0---|----0---------4-------0---|
--3----------4---------|------2-------0-----------|
-----------------------|--3-----3-----------------|

   
----------------------0-2-|--3--------------------|-----3--3--3-----2--|
------0h1-3p0---0h1h3-----|----3p0-------------3--|--3-----------3-----|
--0h2---------2-----------|--0-----0--------------|--------------0-----|
--------------0-----------|----------0------------|--------------------|
--------------------------|------------2----------|-----------2--------|
--3-----------------------|--------------3--------|--3-----------------|

  
--0-----0--------0--|--------------0-----|--------------------|
-----------------1--|--3-----------------|--3-----1--0-----3--|
-----0--------0-----|--------5--------5--|--------0-----------|
-----------2--------|-----4--------------|-----0--------0-----|
--3-----------------|--5--------5--------|--------------------|
--------------------|--------------------|--3--------3--------|

   
-----3--3--3-----2--|--0--------2--------|--------3--2----3-0--|
--3-----------3-----|-----------------3--|--3-----------3---2--|
--------------0-----|--------2-----2-----|-----0--------2------|
--------------------|-----2-----0--------|---------------------|
-----------2--------|--4-----------------|--2--------0------0--|
--3-----------------|--------------------|---------------------|

 
--------------------------|--------------------------|----5p2---------------|
--3-----3-----------------|------0-------------------|--------3----------3--|
------2---2-------2-------|----0---0---0-----2-------|----------2-----------|
----4-------4---4---4---4-|--0-------0-----2---2---2-|--0---------4-0-------|
--5-----------5-------5---|--------------4-------4---|----------------------|
--------------------------|--------------------------|----------------------|

   
--------------------|-----------1--------|-----------3----5-1--|
--3-----3--3--1--0--|--1--------------3--|--3-----3-----0------|
--------4--1--------|--------2-----2-----|--5-----4--0---------|
-----4--------------|-----2-----0--------|-----5---------------|
--2-----------------|--0-----------------|---------------------|
-----------0--------|--------------------|--3------------------|

 
--0--------------------|--3--------0---------|--3-----------------------|
--------------------1--|--------3-------3-1--|------0---0---4-----------|
----------0---------0--|-----0--------0------|----0---0---0-----2---2---|
----0h2h3---2----2-----|---------------------|----------------4---4---4-|
--3-----------3--------|--2--------3---------|--2-----------2-----------|
-----------------------|---------------------|--------------------------|

 
--0---2---3------------|--------------------------|
-------------------0---|----3p0---0---------0-1---|
----0---0----0-------2-|--0-----0---0---0h2-----2-|
----------------2--0---|--------------4-----------|
--3----------4---------|--------------0-----------|
-----------------------|--3-----------------------|

             
----------------------0h2-|--3------------||
------0h1-3p0---0h1h3-----|--0------------||
--0h2---------2-----------|--0------------||
--------------0-----------|---------------||
--------------------------|---------------||
--3-----------------------|--3------------||

| /  slide up
| \  slide down
| h  hammer-on
| p  pull-off
| ~  vibrato
| +  harmonic
| x  Mute note
===========================================================================
Tap to rate this tab
# A B C D E F G H I J K L M N O P Q R S T U V W X Y Z