Song name
# A B C D E F G H I J K L M N O P Q R S T U V W X Y Z

Wolfgang Amadeus Mozart - Ave Verum tab

----------------------------------------------------------------------------
		    Ave Verum - Wolfgang Amadeus Mozart
----------------------------------------------------------------------------


Tabbed by: Dave S. 
Email: prime-prine@hotmail.com

Tuning: Standard
                                                                       


E|----------------------|----------------------|------------5---------|
B|-----------------0----|--2---------2----3----|--5---------5---------|
G|--2---------2----1----|--2----2----2----4----|--6--------------6----|
D|-------2--------------|----------------------|-------7--------------|
A|--0-------------------|--0-------------------|--0-------------------|
E|----------------------|----------------------|----------------------|

    
--0-------------------|-------2----0---------|----------------------|
-------4----3---------|--3----3----2----3----|--3----2----2---------|
-------4----4---------|--4--------------4----|--4----2----2---------|
-----------------2----|----------------------|-----------------2----|
--0-------------------|--0-------------------|--0---------0---------|
----------------------|------------0---------|----------------------|

     
----------------------|----------------------|----------------------|
--0--------------0----|--2----2----3----3----|--3---------2----2----|
--1----1---------1----|--2----2----4----4----|--4---------2----2----|
------------2---------|----------------------|-------2----2----2----|
----------------------|--0-------------------|--0---------0---------|
--0-------------------|------------4---------|----------------------|

    
----------------------|-----------------0----|--0-------------------|
--0-------------------|--0---------0---------|--0----4----4---------|
--1----1---------1----|--1---------1---------|--1---------2---------|
--2---------2---------|-------2--------------|-----------------4----|
----------------------|----------------------|----------------------|
--0-------------------|--0-------------------|--0---------2---------|

    
-----------------2----|--2--------------0----|--5----0----2----2----|
--0----4---------4----|--4----5----5---------|------------4----4----|
-----------------2----|--2----6----6---------|----------------------|
--1-------------------|-------6----6---------|----------------------|
------------2---------|--3----4----4---------|----------------------|
----------------------|----------------------|----------------------|

    
--5----4----2----0----|--0-------------------|--0----0----7----0----|
--5-------------------|--0---------4----4----|--0-------------------|
--4---------2----1----|------------2----2----|--1-------------------|
----------------------|-------4---------4----|----------------------|
------------0---------|--2---------2---------|----------------------|
--0-------------------|----------------------|--0--------------4----|

    
-------5----7----9----|--0---------4--2-----0--|--0-------------------|
--5----5----5---------|-------0----------------|-------0---------0----|
--6-------------------|--1---------2-----------|------------1---------|
--6---------6---------|------------------4-----|----------------------|
--4----4--------------|--2---------2-----------|----------------------|
------------7----6----|------------------------|--0-------------------|

  
--0--------------0----|--0----1----1---------|--1----5----3----1----|
-------0--------------|--0----0----0---------|--0----6----5----3----|
------------1---------|--1--------------0----|--0-------------------|
----------------------|-------0----0---------|----------------------|
----------------------|----------------------|----------------------|
--0-------------------|--0-------------------|--3-------------------|

    
--1----0----0---------|----------------------|-------1----0---------|
--0----1----1---------|--3---------3----3----|--3----1----0----3----|
--0----0---------0----|--2---------2----2----|--1--------------4----|
----------------------|-------4----4----4----|--3-------------------|
------------3---------|--3---------3----3----|--2----0--------------|
--3-------------------|----------------------|------------4----0----|

     
-----------------------|----------------------|----------------------|
--3---------1--0--1----|--0--------------0----|--2--------------2----|
--1---------2-----2----|--1----1----2----1----|--2---------2---------|
-------3----2-----1----|-------2----4---------|-------2--------------|
-----------------------|----------------------|--0-------------------|
--1--------------------|--0-------------------|----------------------|

    
----------------------|----------------------|-----------------0----|
--2----0---------3----|--3--------------3----|--3----2----0----2----|
--2----1----2----4----|--4--------------4----|--4----2---------1----|
--0---------0---------|--0-------------------|----------------------|
----------------------|-------4----2---------|----------------------|
----------------------|-----------------0----|--0--------------0----|

   
--0--------------0----|--0---------0----2----|---------------------|
--2--------------2----|--2----3----2----0----|--2--------0------2--|
--1----2----1----2----|--2---------2----2----|--2--------1------1--|
-------4----2---------|------------2----1----|--2------------------|
----------------------|----------------------|---------------------|
--0--------------2----|--2-------------------|--0--------0---------|

   
---------------------|--5-------------------|--5----5----6----6----|
--3---------3--------|------------2----2----|--3---------5---------|
--2------------------|------------0----0----|------------6---------|
-------0-------------|-------4----2---------|--3---------5---------|
---------------------|----------------------|----------------------|
--2------------------|----------------------|----------------------|

 
--7---------4----5----|--4----2--0--5---------|----------------------|
--7----7--------------|--5----------5----3----|--2---------0------0--|
----------------------|--4---------------2----|--2---------1------1--|
----------------------|--0--------------------|-------2--------------|
--6-------------------|-------------4---------|----------------------|
----------------------|------------------2----|--0-------------------|

  
------------0---------|----------------------|-----------------------|
-------2----2---------|------------3---------|--2---------0----------|
--2----2---------1----|--2----2----4---------|--4----2----2----1--2--|
----------------------|-----------------4----|------------2----------|
--0-------------------|-----------------5----|-----------------------|
-----------------0----|--2-------------------|--0---------0----------|

                 
-------------------||
-------------------||
--2----------------||
--2----------------||
--0----------------||
-------------------||

| /  slide up
| \  slide down
| h  hammer-on
| p  pull-off
| ~  vibrato
| +  harmonic
| x  Mute note
===========================================================================
Tap to rate this tab
# A B C D E F G H I J K L M N O P Q R S T U V W X Y Z