Song name
# A B C D E F G H I J K L M N O P Q R S T U V W X Y Z

Wolfgang Amadeus Mozart - Air In A Flat Major tab

----------------------------------------------------------------------------
	      Air in A Flat Major - Wolfgang Amadeus Mozart
----------------------------------------------------------------------------


Tabbed by: Dave S. 
Email: prime-prine@hotmail.com

Tuning: (Standard) CAPO 1st Fret


                                                             
E|----------------0-|----------------0-|------------------|----------------|
B|--3----0----1-----|--3----0----1-----|--3----1----0---1-|--0-------------|
G|------------------|------------------|--4----2----0-----|-------2--------|
D|------------------|------------------|--0---------------|--0-------------|
A|--2---------0-----|--2---------0-----|------------------|----------------|
E|-------3----------|-------3----------|------------------|----------------|

   
--2---------3-----|--5---------3---0-|--5--2------------|-----------------|
-------3--------3-|-------3----------|--------3----2----|--3--------------|
------------------|------------------|------------------|-------2---------|
--0---------------|--0---------------|--0---------------|--0---------0----|
------------------|------------------|--------0----0----|-----------------|
------------------|------------------|------------------|-----------------|

      
----------------0-|----------------0-|------------------|----------------|
--3----0----1-----|--3----0----1-----|--3----1----0---1-|--0-------------|
------------------|------------------|--4----2----0-----|-------2--------|
------------------|------------------|--0---------------|--0-------------|
--2---------0-----|--2---------0-----|------------------|----------------|
-------3----------|-------3----------|------------------|----------------|

   
--2---------3-----|--5---------3---0-|--5--2------------|-----------------|
-------3--------3-|-------3----------|--------3----2----|--3--------------|
------------------|------------------|------------------|-------2---------|
--0---------------|--0---------------|--0---------------|--0---------0----|
------------------|------------------|--------0----0----|-----------------|
------------------|------------------|------------------|-----------------|

  
--0--1--0-----------|--------------------|------------3-----|
--0--------3--1--0--|--1-----------------|--1----0----0---0-|
--1-----------------|-----4--2--0--------|--2----0--------0-|
--------------------|--------------4--2--|--0----0----------|
--------------------|--0-----------------|------------4-----|
--0-----------------|--------------------|------------------|

   
-------------------|------------------|------------------|------------------|
--0----------------|--0---------1-----|--3---------1-----|--3--0------------|
--0----2-----------|-------0--------2-|-------0--------2-|--------0---------|
--0----4-----------|------------------|------------------|--------0----4----|
----------3--2--0--|------------------|------------------|-------------5----|
-------------------|--3---------------|--3---------------|------------------|

  
---------------|--0--1--0-----------|--------------------|------------3-----|
---------------|--0--------3--1--0--|--1-----------------|--1----0----0---0-|
--0------------|--1-----------------|-----4--2--0--------|--2----0--------0-|
-------0-------|--------------------|--------------4--2--|--0----0----------|
---------------|--------------------|--0-----------------|------------4-----|
------------3--|--0-----------------|--------------------|------------------|

   
-------------------|------------------|------------------|------------------|
--0----------------|--0---------1-----|--3---------1-----|--3--0------------|
--0----2-----------|-------0--------2-|-------0--------2-|--------0---------|
--0----4-----------|------------------|------------------|--------0----4----|
----------3--2--0--|------------------|------------------|-------------5----|
-------------------|--3---------------|--3---------------|------------------|

        
-----------------|-------3--------||
-----------------|----------------||
--0--------------|-------0--------||
-------0---------|----------------||
-----------------|----------------||
------------3----|--3-------------||

| /  slide up
| \  slide down
| h  hammer-on
| p  pull-off
| ~  vibrato
| +  harmonic
| x  Mute note
===========================================================================
Tap to rate this tab
# A B C D E F G H I J K L M N O P Q R S T U V W X Y Z