Song name
# A B C D E F G H I J K L M N O P Q R S T U V W X Y Z

Wolfgang Amadeus Mozart - Turkish March tab

Song: Turkish March
Artist: Wolfgang Amadeus Mozart
- Transposed by Colton Wood (AwokenDEMON)

Contact me at "ColtonWoed@aol.com"

Rondo Alla Turca, or Turkish March, is a peice well known throughout the 
west. Originally played on the piano, I have transposed the whole song into 
a two part song, one guitar for the treble Clef and one for the bass clef. 
Good luck. *I transposed the song a full octave down because most guitars won't 
go as high as it would be.

Guitar 1: Standard Tuning (E,A,D,G,B,e), the first part of the tab
Guitar 2: 6 Stringed Bass Tuning (B,E,A,D,G,C), the second part of the tab

Legend:

h  | Hammer on to
p  | Pull off to
\  | Slide down to
/  | Slide up to
.  | Staccato
#> | Grace note
tr#| Trill
x  | Dead note
****************************************************************************

*Guitar 1*
**********

Part One *Play twice*
These can be hammer ons/pull offs but I don't recommend it

e|---------------------0---1-0---0-7-5-4-5-7-5-4-5-8---|
B|---------1---3-1-0-1---------4-----------------------|
G|-4-2-1-2---------------------------------------------|
D|-----------------------------------------------------|
A|-----------------------------------------------------|
E|-----------------------------------------------------|
   .  .   . . . .  . . . .  . . . . 
e|-5--8--/7-5-0-5-/7-5-0-5-/7-5-0---0------------------|
B|----------7-8-7----7-8-7----7-8-7--------------------|
G|--------------------------------8--------------------|
D|-----------------------------------------------------|
A|-----------------------------------------------------|
E|-----------------------------------------------------|

Part Two *Play twice*
   .  .  .  .              .  .  .  .                 
e|-0--1--3--3--5p3-1p0-----0--1--3--3--5p3-1p0---------|
B|-1--3--5--5----------3---1--3--5--5----------3-------|
G|---------------------4-----------------------4-------|
D|-----------------------------------------------------|
A|-(play louder)-----------(Play Softer)---------------|
E|-----------------------------------------------------|
   .  .  .  .              .  .  .  .     
e|-------0--0--1p0---------------0--0--1p0-------------|
B|-1--3--1--1------3p1-0---1--3--1--1------3p1-0-------|
G|-2--4----------------1---2--4----------------1-------|
D|-----------------------------------------------------|
A|-(Play Louder)-----------(Play Softer)---------------|
E|-----------------------------------------------------|
                                                 . .
e|---------------------0---1-0---0-7-5-4-5-7-5-4-5-8---|
B|---------1---3-1-0-1---------4-----------------------|
G|-4-2-1-2---------------------------------------------|
D|-----------------------------------------------------|
A|-----------------------------------------------------|
E|-----------------------------------------------------|
   .  .  .  .  .  .  .  .  .  .  .  \____/ Trill 16ths
e|-5--7--8--7--5--4--5---------------------------------|
B|----------------------5--6---------------------------|
G|----------------------------7--5---4tr5--2-----------|
D|-----------------------------------------------------|
A|-----------------------------------------------------|
E|-----------------------------------------------------|

Part Three *Play twice*
These are octaves. If they are too difficult at the speed they are played 
at, you can play just the notes on the high e string

e|-5--7--9---5--7--9--7--5--4--2--4--5--7--4--0--------|
B|-----------------------------------------------------|
G|-2--4--6---2--4--6--4--2--1-----1--2--4--1-----------|
D|-----------------------------4--------------2--------|
A|-----------------------------------------------------|
E|-----------------------------------------------------|

e|-5--7--9---5--7--9--7--5--4--2--7--0--5--------------|
B|-----------------------------------------------------|
G|-2--4--6---2--4--6--4--2--1-----4-----1--------------|
D|-----------------------------4-----2-----------------|
A|-----------------------------------------------------|
E|-----------------------------------------------------|

Part Four *Play Twice*
You could say this is part 1 of the "solo"
ALL OF THESE ARE HAMMER ONS/PULL OFFS! (If they can be one)

e|-9-10-9-7-5-7-5-4-2-5-4-2-1-2-4-0-----0---2-0-2-4-5-4|
B|----------------------------------2-4---2------------|
G|-----------------------------------------------------|
D|-----------------------------------------------------|
A|-----------------------------------------------------|
E|-----------------------------------------------------|

e|-5-7-9-7-9-7-9-10-9-7-5-7-5-4-2-5-4-2-0-2-4-0-----0--|
B|----------------------------------------------2-4---2|
G|-----------------------------------------------------|
D|-----------------------------------------------------|
A|-----------------------------------------------------|
E|-----------------------------------------------------|

e|---0-2-----------------------------------------------|
B|-4-----4-1-2-4-1-2-----------------------------------|
G|-----------------------------------------------------|
D|-----------------------------------------------------|
A|-----------------------------------------------------|
E|-----------------------------------------------------|

Part Five *Play Twice*
...And this would be part 2 of the "solo"
STILL ALL HAMMER ONS/PULL OFFS! (If they can be one, still)

e|-0---------------0-2-4-5-5-4-2-0-0-------------------|
B|---3-2-0---0-2-3-------------------3-2-0---0-2-3-----|
G|---------2-------------------------------2-----------|
D|-----------------------------------------------------|
A|-----------------------------------------------------|
E|-----------------------------------------------------|
           \____/ Not a hammer on though
e|-0-2-4-5--6--7--0---------------0-2-4-5-5-4-2-0-0----|
B|------------------3-2-0---0-2-3----------------------|
G|------------------------2----------------------------|
D|-----------------------------------------------------|
A|-----------------------------------------------------|
E|-----------------------------------------------------|

e|---------0-----------------9-10-9-7-5-7-5-4-2-5-4-2--|
B|-3-2-0-2-----2-0-3---0-------------------------------|
G|-----------2-------1---2-----------------------------|
D|-----------------------------------------------------|
A|-----------------------------------------------------|
E|-----------------------------------------------------|

e|-1-2-4-0-----0---2-0-2-4-5-4-5-7-9-7-9-7-9-7-9-5-----|
B|---------2-4---2-------------------------------------|
G|-----------------------------------------------------|
D|-----------------------------------------------------|
A|-----------------------------------------------------|
E|-----------------------------------------------------|

e|-10-9-10-9-10-9-10-9-10-9-7-5-4-5-7-4-5-7-9---0---4-0|
B|7-------------------------------------------7---7----|
G|-----------------------------------------------------|
D|-----------------------------------------------------|
A|-----------------------------------------------------|
E|-----------------------------------------------------|

e|-2---|
B|-----|
G|-----|
D|-----|
A|-----|
E|-----|


*PLAY PART THREE TWICE*

*PLAY PART ONE TWICE*

*PLAY PART TWO TWICE*


Part Six *Play Twice*
I recommend using your thumb and index finger to play this!
NOTE: THESE ARE NO LONGER OCTAVES!

e|---5--7--9---5--7--9--7--5--4--2--4--5--7--4--0------|
B|-----------------------------------------------------|
G|-2--4--6---2--4--6--4--2--1-----1--2--4--1-----------|
D|-----------------------------4--------------2--------|
A|-----------------------------------------------------|
E|-----------------------------------------------------|
First time end on this...             ...\___/
e|---5--7--9---5--7--9--7--5--4--2--7--0-|-5-----------|
B|---------------------------------------|-------------|
G|-2--4--6---2--4--6--4--2--1-----4------|-2-----------|
D|-----------------------------4-----2---|-------------|
A|---------------------------------------|-------------|
E|---------------------------------------|-------------| 
Then on the second time go straight to Part Seven

Part Seven *play this one time!*
You could call this the "outro" as well

e|-5---9---9-9-----9----10p9p7h9-10p9p7h9-10-----------|
B|-----------10----10---------------------10-----------|
G|-2---6-----9-----9----------------------11-----------|
D|-----------------------------------------------------|
A|-----------------------------------------------------|
E|-----------------------------------------------------|
  \__/  \__/  \__/  \__/ Sixteenths 
e|-10>9--10>9--10>9--10>9---7---12-9-----9-------------|
B|----10----10----10----10--9------10----10------------|
G|--------------------------9------9-----9-------------|
D|-----------------------------------------------------|
A|-----------------------------------------------------|
E|-----------------------------------------------------|
             Sixteenths \__/   \__/  \__/  \__/  \__/
e|-10p9p7h9-10p9p7h9-10--10>9---10>9--10>9--10>9--10>9-|
B|-------------------10-----10-----10----10----10----10|
G|-------------------11-----9--------------------------|
D|-----------------------------------------------------|
A|-----------------------------------------------------|
E|-----------------------------------------------------|

e|-5---9---9-9-----9----10p9p7h9-10p9p7h9-10-----------|
B|-----------10----10---------------------10-----------|
G|-----------9-----------------------------------------|
D|-----------------------------------------------------|
A|-----------------------------------------------------|
E|-----------------------------------------------------|
  \__/  \__/  \__/  \__/ Sixteenths 
e|-10>9--10>9--10>9--10>9---7---12-9-----9-------------|
B|----10----10----10----10--9------10----10------------|
G|-----------------------------------------------------|
D|-----------------------------------------------------|
A|-----------------------------------------------------|
E|-----------------------------------------------------|
             Sixteenths \__/   \__/  \__/  \__/  \__/
e|-10p9p7h9-10p9p7h9-10--10>9---10>9--10>9--10>9--10>9-|
B|-------------------10-----10-----10----10----10----10|
G|--------------------------9--------------------------|
D|-----------------------------------------------------|
A|-----------------------------------------------------|
E|-----------------------------------------------------|

e|-5----9-5----12-5----9-5-9-5-12-5--------------------|
B|------------------------------------10-----10--------|
G|------6------9-------6---6---9------x------x---------|
D|-7------7-------7------7---7---7----11-----11--------|
A|------------------------------------12-----12--------|
E|-----------------------------------------------------|

We Aren't quite finished yet...
****************************************************************************

Moving on to Guitar 2, which is the rhythmic guitar to the song.

REMEMBER! It is in standard 6 stringed bass tuning (B,E,A,D,G,C)

***a ! Symbol now represents a rest***

Part One *Play twice*
These are all eighth notes

C|------------4-4-4----4-4-4----4----4----4-4-4--------|
G|---------2--5-5-5-2--5-5-5-2--5-2--5-2--5-5-5--------|
D|-!-!-!-!---------------------------------------------|
A|-!-!-!-!---------------------------------------------|
E|-----------------------------------------------------|
B|-----------------------------------------------------|

C|----4-4-4-----4-4-4-----4----------------------------|
G|-2--4-4-4--2--4-4-4--2--4-----4----------------------|
D|---------------------------------2-------------------|
A|---------------------------2-------------------------|
E|-----------------------------------------------------|
B|-----------------------------------------------------|

Part Two *Play twice*
Still all eighth notes

C|---------0-----4-------7--------0-------4------------|
G|--------------------0------------------------0-------|
D|-!-!--------2-------------!-!--------2---------!-!-!-|
A|-!-!-3--------------------!-!-3----------------!-!-!-|
E|-----(Play Louder)------------(Play Softer)----------|
B|-----------------------------------------------------|

C|-------------0--------4-----------------0------------|
G|-----2--------------------------2--------------------|
D|------------------2------!-!----------------2--!-!-!-|
A|-0-------4---------------!-!-0------4----------!-!-!-|
E|-(Play Louder)---------------(Play Softer)-----------|
B|-----------------------------------------------------|

C|----4-4-4-----4-4-4-----4----4-----3-3-3-------------|
G|-2--5-5-5--2--5-5-5--2--5-2--5-----2-2-2-------------|
D|--------------------------------3--------------------|
A|-----------------------------------------------------|
E|-----------------------------------------------------|
B|-----------------------------------------------------|

C|----4------------------------------------------------|
G|-2--2----4----2----4---2--2--1--1--2-----------------|
D|------0--3----2-0--3---2--2--2--2--------------------|
A|-----------3-----------------------------------------|
E|-----------------------------------------------------|
B|-----------------------------------------------------|

Part Three *Play twice* 
STILL all eighth notes

C|-----------------------------------------------------|
G|-------/2-2-2-2-/2-2-2-2-----------------------------|
D|--!-!-----------------------------/2-2-2-2-----------|
A|--!-!--------------------/5-5-5-5--------------------|
E|-----------------------------------------------------|
B|-----------------------------------------------------|

C|-----------------------------------------------------|
G|-/2-2-2-2-/2-2-2-2------------2----------------------|
D|------------------------/2-2-------------------------|
A|-------------------/5-5-------0----------------------|
E|-----------------------------------------------------|
B|-----------------------------------------------------|

Part Four *Play twice*
They are all STILL eighth notes!

C|--------1-1-1----1-1-1----1-1-1----1-1-1----1-1-1----|
G|--------2-2-2-1--4-4-4----2-2-2----1-1-1----2-2-2----|
D|-!-!-4-----------------4--------3--------4-----------|
A|-!-!-------------------------------------------------|
E|-----------------------------------------------------|
B|-----------------------------------------------------|

C|----4-4-4----6-6-6--4--------------------------------|
G|-1--6-6-6----8-8-8--6--------------------------------|
D|----------6------------------------------------------|
A|-----------------------------------------------------|
E|-----------------------------------------------------|
B|-----------------------------------------------------|

Part Five *Play twice*
More eighth notes...

C|--------4-4-4----1-1-1----4-4-4----2-2-2----4-4-4----|
G|--------6-6-6----2-2-2-2--6-6-6----1-1-1-2--6-6-6----|
D|-!-!-2--------4-----------------2--------------------|
A|-!-!-------------------------------------------------|
E|-----------------------------------------------------|
B|-----------------------------------------------------|
            .  .  .  .     .
C|----4-4-4-------------------------1-1-1----1-1-1-----|
G|-4--7-7-7----------------2--------2-2-2-1--4-4-4-----|
D|----------7--4-----2---!---!-!-4---------------------|
A|----------------5------!---!-!-----------------------|
E|-----------------------------------------------------|
B|-----------------------------------------------------|

C|----1-1-1---1-1-1------------------------------------|
G|----2-2-2---1-1-0----4-4-4---4-4-4----2----4--2------|
D|-4-------------------4-4-4---6-6-6----4----6--4------|
A|----------4-------2--------2-------4----4------------|
E|-----------------------------------------------------|
B|-----------------------------------------------------|


*PLAY PART THREE TWICE*

*PLAY PART ONE TWICE*

*PLAY PART TWO TWICE*


Part Six *Play twice*
Eighth notes of course

C|-----------------------------------------------------|
G|-------/2-2-2-2-/2-2-2-2-----------------------------|
D|--!-!-----------------------------/2-2-2-2-----------|
A|--!-!--------------------/5-5-5-5--------------------|
E|-----------------------------------------------------|
B|-----------------------------------------------------|
First time end on this...   ...\___/
C|-----------------------------|-----------------------|
G|-/2-2-2-2-/2-2-2-2-----------|-2---------------------|
D|------------------------/2-2-|-----------------------|
A|-------------------/5-5------|-0---------------------|
E|-----------------------------|-----------------------|
B|-----------------------------|-----------------------|
Second time go straight to Part Seven

Part Seven *Played one time!*
Eighth notes WITH some Sixteenths (Which I will point out)

C|-----------------------------------------------------|
G|-/2-2-2-2-/2-2-2-2-/2-2-2-2-/2-2-2-2-----------------|
D|-----------------------------------------------------|
A|-------------------------------------/5-5-5-5--------|
E|-----------------------------------------------------|
B|-----------------------------------------------------|

C|-----------------------------------------------------|
G|-/2-2-2-2----------/2-2-2-2-/2-2-2-2-/2-2-2-2--------|
D|----------/2-2-2-2-----------------------------------|
A|-----------------------------------------------------|
E|-----------------------------------------------------|
B|-----------------------------------------------------|
Sixteenths Staring Right Here \_/
C|-------------------------------4p1h4---4p1h4---4p1h4-|
G|----------/2-2-2-2-----------2-------2-------2-------|
D|-------------------/2-2-2-2--------------------------|
A|-/5-5-5-5--------------------------------------------|
E|-----------------------------------------------------|
B|-----------------------------------------------------|

C|---4p1h4---4p1h4---4p1h4---4p1h4---4p1h4---6p2h6-----|
G|-2-------2-------2-------2-------2-------2-----------|
D|-----------------------------------------------------|
A|-----------------------------------------------------|
E|-----------------------------------------------------|
B|-----------------------------------------------------|
                     And ending right here \_/- eighths
C|---6p2h6---4p1h4-1-4p1h4---4p1h4---4p1h4-------------|
G|-2-------2-------------------------------/2-2-2-2----|
D|-------------------------2-------2-------------------|
A|-----------------------------------------------------|
E|-----------------------------------------------------|
B|-----------------------------------------------------|

C|-----------------------------------------------------|
G|-/2-2-2-2-/2-2-2-2----------/2-2-2-2-----------------|
D|-------------------------------------/2-2-2-2--------|
A|-------------------/5-5-5-5--------------------------|
E|-----------------------------------------------------|
B|-----------------------------------------------------|

C|-----------------------------------------------------|
G|-/2-2-2-2-/2-2-2-2-/2-2-2-2-/2-2-2-2-----2----2------|
D|-------------------------------------!-!-2----2------|
A|-------------------------------------!-!-4----4------|
E|-----------------------------------------------------|
B|-----------------------------------------------------|

And that's it. That took up six hours of my day so please enjoy it! Oh and I 
wouldn't mind if you leave a rating and a comment as well

Love This song and I hope the tab is good! Bye.
Tap to rate this tab
# A B C D E F G H I J K L M N O P Q R S T U V W X Y Z