Song name
# A B C D E F G H I J K L M N O P Q R S T U V W X Y Z

Wolfgang Amadeus Mozart - K626 Requiem Mass In Dm - Kyrie Eleison tab

#----------------------------------PLEASE NOTE--------------------------------#
#This file is the author's own work and represents their interpretation of the#
#song. You may only use this file for private study, scholarship, or research.#
#-----------------------------------------------------------------------------#

KYRIE ELEISON FROM MOZART'S REQUIEM IN Dm K.626 - FOR 3 GUITARS

Music by W.A. Mozart
Arranged by Alex Mondragon
Transcribed by Alex Mondragon

This is the Kyrie Eleison from Mozart's unfinished Requiem in D.
I hope to submit an update to remove the harmonics and put more usable notes.
1. Play carefully.
2. Use harmonics.
3. Play slowly.
Send any comments to aldragon192netscape.net

Gtr I (E A D G B E) - 3rd Guitar
Gtr II (E A D G B E) - 2nd Guitar
Gtr III (E A D G B E) - Main Guitar

  Q=77  4/4

  Gtr I
  W          W          W
|----------|----------|------|
|----------|----------|------|
|----------|----------|------|
|----------|----------|------|
|----------|----------|------|
|----------|----------|------|


  Gtr II
  E S S S S S S S S S S S S S  S   S  S S S S  S  S S  E  S  S S S S S
|--------------------------------|--------------------------------------|
|---5---5---5---6-8-6-5-6-8------|-8-10-8-6-8-10----8-10-11-10-8-6-5-3--|
|---------------------------9-10-|---------------10---------------------|
|--------------------------------|--------------------------------------|
|--------------------------------|--------------------------------------|
|--------------------------------|--------------------------------------|


  Gtr I
  H          Q.          E      Q    Q   Q.         E
|-----------10----------10---|--8---13------------------|
|----------------------------|--------------------------|
|----------------------------|----------13---------13---|
|----------------------------|--------------------------|
|----------------------------|--------------------------|
|----------------------------|--------------------------|
|
| Gtr II
| E S S E E  E  S S S S  S S    E E  Q   Q   +S  S  S S
|-------5-3--1--0-1----------|--------------------------|
|-2-5---------------3-5--7-9-|-10--------9---(9)----9---|
|----------------------------|--------------------------|
|----------------------------|--------------------------|
|----------------------------|--------------------------|
|----------------------------|--------------------------|
|
| Gtr III
| H          Q.          E      Q    Q   Q.         E
|-----------10----------10---|--8---13------------------|
|----------------------------|--------------------------|
|----------------------------|----------13---------13---|
|----------------------------|--------------------------|
|----------------------------|--------------------------|
|----------------------------|--------------------------|


   Q     E     E    Q    +S  S  S  S
|-------------------------------------|
|------------------12---(12)---10-12--|
|-14----------14----------------------|
|-------------------------------------|
|-------------------------------------|
|-------------------------------------|
|
|  Q    +S  S  S S  Q    +S  S  S  S
|-------------------------------------|
|-10---(10)---10---12---(12)---10-12--|
|-------------------------------------|
|-------------------------------------|
|-------------------------------------|
|-------------------------------------|
|
|  Q.          E    Q.          S  S
|-------------------------------------|
|------------------12----------10-12--|
|-14----------14----------------------|
|-------------------------------------|
|-------------------------------------|
|-------------------------------------|


   E  S  S  E  S  S  E  E    E  E    E  E   E     E    Q.      S S
|---------------------------------|----15--13----12---10-----------|
|-13-12-13-15-13-15-17-15---13-12-|-10-----------------------------|
|---------------------------------|--------------------------------|
|---------------------------------|---------------------------12---|
|---------------------------------|--------------------------------|
|---------------------------------|--------------------------------|
|
|  E  S  S  E  S  S  E  S S  E  E    Q     +S  S  S S  Q    E  E
|---------------------------------|--------------------------------|
|-13-12-13-15-13-15-17-15---13-12-|-10----(10)---10--------11------|
|---------------------------------|-------------------10-----------|
|---------------------------------|---------------------------12---|
|---------------------------------|--------------------------------|
|---------------------------------|--------------------------------|
|
|  E  S  S  E  S  S  E  E    E  E    E  E   E     E    Q    E  E
|---------------------------------|----15--13----12---10-----------|
|-13-12-13-15-13-15-17-15---13-12-|-10-----------------------------|
|---------------------------------|--------------------------------|
|---------------------------------|---------------------------12---|
|---------------------------------|--------------------------------|
|---------------------------------|--------------------------------|


   Q.          S S  S S  S S  Q
|----------------------------10------|
|------------------10----------------|
|-12----------10-9-------------------|
|-----------------------12-----------|
|------------------------------------|
|------------------------------------|
|
|  Q    +S  S  E    Q         E  S S
|------------------------------------|
|------------------------------------|
|------------------------------------|
|-11---(11)---11---12-----------12---|
|------------------------------------|
|------------------------------------|
|
|  Q.          S S  E    E    Q
|----------------------------10------|
|------------------10----------------|
|-12----------10-9-------------------|
|-----------------------12-----------|
|------------------------------------|
|------------------------------------|


   +Q     Q           +E   S  S  Q
|-(10)---10----------(10)--9-10-12-------|
|----------------------------------------|
|----------------------------------------|
|----------------------------------------|
|----------------------------------------|
|----------------------------------------|
|
|   Q    +S  S  S  S   E   S  S  E  S  S
|----------------------------------------|
|----------------------------------------|
|----------------------------------------|
|--14---(14)---12-14--15--14-15-17-15-17-|
|----------------------------------------|
|----------------------------------------|
|
|  +Q     Q            E   S  S  Q
|-(10)---10-----------10---9-10-12-------|
|----------------------------------------|
|----------------------------------------|
|----------------------------------------|
|----------------------------------------|
|----------------------------------------|


   +Q      E  E  Q       Q        H                     E  S S  S S  E
|-(12)----10--9-10------------|----------------------------------------|
|-----------------------------|---------------------------12---12---12-|
|-----------------------------|----------------------------------------|
|-----------------------------|----------------------------------------|
|-----------------------------|----------------------------------------|
|-----------------------------|----------------------------------------|
|
|   E   E  E  E  E S  S  E  E     E    E   +S  S  S  S  Q       Q
|-----------------------------|----------------------------------------|
|-----------------------------|----------------------------------------|
|-----------------------------|----------------------------------------|
|-<19>-17-15-14-12---14-16-18-|-<19>-----------------------------------|
|-----------------------------|------<19>-(19)---17-15-14--------------|
|-----------------------------|----------------------------------------|
|
|  +Q      E  E  Q       Q        H                     E  S S  S S  E
|-(12)----10--9-10------------|----------------------------------------|
|-----------------------------|---------------------------12---12---12-|
|-----------------------------|----------------------------------------|
|-----------------------------|----------------------------------------|
|-----------------------------|----------------------------------------|
|-----------------------------|----------------------------------------|


  Gtrs I, III
   S  S  S  S  S  S  S  S   S   S  S  S  S  S  S  S
|---------------------------------------------------|
|-13-15-13-12-13-15--------15--17-15-13-15-17----15-|
|-------------------16-17---------------------17----|
|---------------------------------------------------|
|---------------------------------------------------|
|---------------------------------------------------|
|
|  E     S  S  Q           +S   S  S  S  E     S  S
|---------------------------------------------------|
|----------------------------------------------8--6-|
|-------------14----------(14)-12-10--9-10----------|
|-------14------------------------------------------|
|---------------------------------------------------|
|---------------------------------------------------|


   E  S  S  S  S  S  S E E  E    E
|------------------------7-12---10-|
|-17-18-17-15-13-12-10-9-----------|
|----------------------------------|
|----------------------------------|
|----------------------------------|
|----------------------------------|
|
|  Q        Q          E E  S S  E
|----------------------------------|
|--5---------------------5--7----9-|
|----------------------------------|
|----------------------------------|
|----------------------------------|
|----------------------------------|


  Gtr I
   S S E +S  S S  S  Q     E  E
|--8-7-5-(5)-6------------------|
|--------------8-10----------10-|
|-------------------11----12----|
|-------------------------------|
|-------------------------------|
|-------------------------------|
|
|  S S E  Q          E  E  E  E
|-------------------------10--8-|
|-10-------------------10-------|
|-------------------------------|
|-------------------------------|
|-------------------------------|
|-------------------------------|
|
| Gtr III
|  S S E +S  S S  S  Q     E  E
|--8-7-5-(5)-6------------------|
|--------------8-10----------10-|
|-------------------11----12----|
|-------------------------------|
|-------------------------------|
|-------------------------------|


   Q      Q         Q.      E    Q    Q   Q.            E
|-----------------------------|---------------------------|
|------------------13------13-|------15-------------------|
|-----------------------------|-14------------------------|
|-12--------------------------|----------14------------14-|
|-----------------------------|---------------------------|
|-----------------------------|---------------------------|
|
|  S S E +S  S S S  Q    E  E    E E  Q   E   E  +S  S  E
|--6-5-3-(3)-5----------------|---------------------------|
|--------------6-8----------8-|---------------------------|
|-------------------9---10----|---------------------------|
|-----------------------------|-10-----------10-(10)----8-|
|-----------------------------|---------------------------|
|-----------------------------|---------------------------|
|
|  Q      Q         Q.      E    Q    Q   Q.            E
|-----------------------------|---------------------------|
|------------------13------13-|------15-------------------|
|-----------------------------|-14------------------------|
|-12--------------------------|----------14------------14-|
|-----------------------------|---------------------------|
|-----------------------------|---------------------------|


   Q          S  E    Q.          S  S
|--1-------------1----3-----------1--3-|
|--------------------------------------|
|--------------------------------------|
|--------------------------------------|
|--------------------------------------|
|--------------------------------------|
|
|  S  S S S S S  S S  E  S S S S  S  S
|--------------------------------------|
|-------6----------------8-------------|
|-----------7----------------9---------|
|--7-------------8---------------10----|
|--------------------------------------|
|--------------------------------------|
|
|  Q.            E    Q.          S  S
|--------------------------------------|
|--------------------------------------|
|--------------------------------------|
|-15------------15---17----------15-17-|
|--------------------------------------|
|--------------------------------------|


  E S  S E S S  E E  E  E      Q   E  E      Q
|-5-3--5-6-5-8--6-5--3--2---|--3---5--6----------|
|---------------------------|--------------------|
|---------------------------|--------------------|
|---------------------------|--------------------|
|---------------------------|--------------------|
|---------------------------|--------------------|
|
| E S  S E S S  E E  E  S S    Q   E  E  E E Q
|---------------------------|--------------------|
|--------8-6-8-10-----------|--------------------|
|---9-10----------9-10------|--------------------|
|----------------------11---|-12--14-16-17-------|
|---------------------------|--------------------|
|---------------------------|--------------------|
|
| E S  S E S S  E E  E  E      Q   E  E      Q
|-5-3--5-6-5-8--6-5--3--2---|--3---5--6----------|
|---------------------------|--------------------|
|---------------------------|--------------------|
|---------------------------|--------------------|
|---------------------------|--------------------|
|---------------------------|--------------------|


  E   S  S   S  S   S  S   S    S    S    S    S    S    S  S
|-----------------------------------------------------------6-|
|-------------------------------------------------------------|
|-------------------------------------------------------------|
|---<19>---<19>---<19>---<20>-<22>-<20>-<19>-<20>-<22>-<19>---|
|-------------------------------------------------------------|
|-------------------------------------------------------------|
|
| E   E      E      S  S   E         S    S    Q
|-------------------------------------------------------------|
|-------------------------------------------------------------|
|-------------------------------------------------------------|
|---------------------------------------------13--------------|
|----18-----17-----15-----13----------------------------------|
|-----------------------------------15------------------------|
|
| E   S  S   S  S   S  S   S    S    S    S    S    S    S  S
|-----------------------------------------------------------6-|
|-------------------------------------------------------------|
|-------------------------15---17---15---15---15---17---------|
|---<19>---<19>---<19>----------------------------------------|
|------------------------------------------------------<24>---|
|-------------------------------------------------------------|


    S   S  S S  S  S  S  S  E  S  S  S  S  S S
|---8--10--8-6--8-10----------------------------|
|--------------------11-13-15-16-15-13-11-10-8--|
|-----------------------------------------------|
|-----------------------------------------------|
|-----------------------------------------------|
|-----------------------------------------------|
|
|  +E      E    H                    Q
|-----------------------------------------------|
|-----------------------------------------------|
|-----------------------------------------------|
|-(13)---------15-------------------13----------|
|---------15------------------------------------|
|-----------------------------------------------|
|
|   S   S  S S  S  S  S  S  E  S  S  S  S  S S
|---8--10--8-6--8-10----------------------------|
|--------------------11-13-15-16-15-13-11-10-8--|
|-----------------------------------------------|
|-----------------------------------------------|
|-----------------------------------------------|
|-----------------------------------------------|


   E  E  E  E  E  E    E  E    S  S E   Q  H
|-----5-10--8--6--7----8-10-|-11-10-8-----------------------|
|--7------------------------|-------------------------------|
|---------------------------|-------------------------------|
|---------------------------|-------------------------------|
|---------------------------|-------------------------------|
|---------------------------|-------------------------------|
|
|  E  E  E  E  E  E    E  E    H           E  S S  S S  S S
|---------------------------|-------------------------------|
|----------10---------------|-------------------------------|
|----11-12-------13---12----|-------------------------------|
|-12----------12------------|----------------12---12---12---|
|---------------------------|-------------------------------|
|---------------------------|-------------------------------|
|
|  E  E  E  E  E  S S  E  E    S  S S S Q  H
|-----5-10--8--6--7----8-10-|-11-10-8-----------------------|
|--7------------------------|-------------------------------|
|---------------------------|-------------------------------|
|---------------------------|-------------------------------|
|---------------------------|-------------------------------|
|---------------------------|-------------------------------|


   W
|----------------------------------------------------|
|----------------------------------------------------|
|----------------------------------------------------|
|----------------------------------------------------|
|----------------------------------------------------|
|----------------------------------------------------|
|
|  S  S  S  S  S  S  S  S  S  S  S  S  S  S  S   S
|----------------------------------------------------|
|----------------------------------------------------|
|----------------------------------------------------|
|-13-15-13-12-13-15-------15-17-15----15-17----------|
|-------------------17-18----------18-------18-<20>--|
|----------------------------------------------------|
|
|  W
|----------------------------------------------------|
|----------------------------------------------------|
|----------------------------------------------------|
|----------------------------------------------------|
|----------------------------------------------------|
|----------------------------------------------------|


    W
|------------------------------------------|
|------------------------------------------|
|------------------------------------------|
|------------------------------------------|
|------------------------------------------|
|------------------------------------------|
|
|   E    S    S    S   S  S  S  E  E  E  E
|------------------------------------------|
|------------------------------------------|
|------------------------------------12-10-|
|---------------------------------12-------|
|-<22>-<23>-<22>-<20>-18-17-15-14----------|
|------------------------------------------|
|
|   W
|------------------------------------------|
|------------------------------------------|
|------------------------------------------|
|------------------------------------------|
|------------------------------------------|
|------------------------------------------|


  H       Q.      E    Q     Q       Q.          E
|--------13------13-|-------15----------------------|
|-------------------|-15----------------------------|
|-------------------|---------------14----------14--|
|-------------------|-------------------------------|
|-------------------|-------------------------------|
|-------------------|-------------------------------|
|
| Q.   E  E  E E  E    E  E  E S  S  E   S S  Q
|-------------------|-------------------------------|
|------------6-8-10-|-11----------------------------|
|-8----7--5---------|------------------------10-----|
|-------------------|-------13---12-10--10----------|
|-------------------|----13-------------------------|
|-------------------|-------------------------------|
|
| H       Q.      E    Q     Q       Q.          E
|--------13------13-|-------15----------------------|
|-------------------|-15----------------------------|
|-------------------|---------------14----------14--|
|-------------------|-------------------------------|
|-------------------|-------------------------------|
|-------------------|-------------------------------|


    Q      E    E    Q         +S  S  S  S
|------------------------------------------|
|-------------------13--------(13)---11-13-|
|--15----------15--------------------------|
|------------------------------------------|
|------------------------------------------|
|------------------------------------------|
|
|  +E  S S S S  S S  E   S  S   Q
|------------------------------------------|
|------------6-----------------------------|
|-(10)-8-7-8----7-8------------------------|
|-------------------10--12-13--15----------|
|------------------------------------------|
|------------------------------------------|
|
|   Q      E    E    Q.               S  S
|------------------------------------------|
|-------------------13---------------11-13-|
|--15----------15--------------------------|
|------------------------------------------|
|------------------------------------------|
|------------------------------------------|


    E     S  S   E     S  S  E  E  E  E    E  E  H     Q
|---------------------------------------|------------------|
|--15----13-15--16----15-16-18----18-16-|-15---------------|
|------------------------------17-------|-------15----14---|
|---------------------------------------|----15------------|
|---------------------------------------|------------------|
|---------------------------------------|------------------|
|
|  +S  S  E     +S  S  S  S  Q     Q       W
|---------------------------------------|------------------|
|---------------------------------------|------------------|
|---------------------12----10----------|------------------|
|-(15)----------------------------------|------------------|
|--------13----(13)---------------------|------------------|
|---------------------------------------|------------------|
|
|   E     S  S   E     S  S  E  E  E  E    E  E  H     Q
|---------------------------------------|------------------|
|--15----13-15--16----15-16-18----18-16-|-15---------------|
|------------------------------17-------|-------15----14---|
|---------------------------------------|----15------------|
|---------------------------------------|------------------|
|---------------------------------------|------------------|


   E  E  H       E  E    Q  Q  H
|---------------------|---------------|
|---------------------|---------------|
|-15-15-15------13-12-|-13------------|
|---------------------|---------------|
|---------------------|---------------|
|---------------------|---------------|
|
|  H        Q.      E    Q  Q  Q.   E
|-----------8-------8-|-----9---------|
|---------------------|--9------------|
|---------------------|--------9----9-|
|---------------------|---------------|
|---------------------|---------------|
|---------------------|---------------|
|
|  E  E  H       E  E    Q  Q  H
|---------------------|---------------|
|---------------------|---------------|
|-15-15-15------13-12-|-13------------|
|---------------------|---------------|
|---------------------|---------------|
|---------------------|---------------|


   E  E  E  E  E    E E E   E E Q  H
|---------------------8-6-|-4-----------------------|
|-------------------------|-------------------------|
|-------15-13-12----------|-------------------------|
|----15------------10-----|-------------------------|
|-------------------------|-------------------------|
|-------------------------|-------------------------|
|
|  Q     Q     H            H      E  S S  S S  S S
|-------------------------|-------------------------|
|-------------------------|-------------------------|
|-10----------------------|-------------------------|
|-------------------------|----------12---12---12---|
|-------------------------|-------------------------|
|-------------------------|-------------------------|
|
|  E  E  E  E  S S  E E E   E E Q  H
|---------------------8-6-|-4-----------------------|
|-------------------------|-------------------------|
|-------15-13-12----------|-------------------------|
|----15------------10-----|-------------------------|
|-------------------------|-------------------------|
|-------------------------|-------------------------|


  Gtrs I, III
   H                          E         S    S    S    S    E
|---------------------------------------5---------5---------5-------|
|-------------------------------------------------------------------|
|-------------------------------------------------------------------|
|-------------------------------------------------------------------|
|-------------------------------------------------------------------|
|-------------------------------------------------------------------|
|
|  S  S  S  S  S  S  S   S    S    S    S    S    S    S    S    S
|-------------------------------------------------------------------|
|-------------------------------------------------------------------|
|-------------------------------------------------------------------|
|-13-15-13-12-14-15-------------------------------------------------|
|-------------------17-<19>-<20>-<22>-<20>-<19>-<21>-<22>------<21>-|
|---------------------------------------------------------<24>------|


    S  S   S  S   S  S   S   S   S   S  S  S   S   S  S  S
|---6--8---6--5---7--8-------------------------------------|
|-----------------------10--12--13--15-13-12--14--15----14-|
|----------------------------------------------------16----|
|----------------------------------------------------------|
|----------------------------------------------------------|
|----------------------------------------------------------|
|
|   S  S   E      S  S   S   S   S   S  S  S   S   S  S  S
|----------------------------------------------------------|
|----------------------------------------------------------|
|----------------------------------------------------------|
|--------------------------------------------<19>----17----|
|-<22>----------<22>---<20>----<19>------------------------|
|--------<22>--------------------------17------------------|


  Gtr I
   E  E  E  E     E    E    E  E    Q       Q        H
|--------------------------12-10-|--9--------------------------------------------|
|-15----15-13----12--------------|-----------------------------------------------|
|----14--------------------------|-----------------------------------------------|
|---------------------14---------|-----------------------------------------------|
|--------------------------------|-----------------------------------------------|
|--------------------------------|-----------------------------------------------|
|
|  Q     E  S  S  S S  S S  Q       S S  E  E   E    E    S    S    E    S    S
|--------------------------------|-----------------------------------------------|
|---------------------12---12----|-----------------------------------------------|
|-------14----14-----------------|-----------------------------------------------|
|-15-------------12--------------|-14--------------------------------------------|
|--------------------------------|------16-17-<19>-<20>-<19>-<20>-<22>-<20>-<22>-|
|--------------------------------|-----------------------------------------------|
|
| Gtr III
|  E  E  E  E     E    E    E  E    Q       Q        H
|--------------------------12-10-|--9--------------------------------------------|
|-15----15-13----12--------------|-----------------------------------------------|
|----14--------------------------|-----------------------------------------------|
|---------------------14---------|-----------------------------------------------|
|--------------------------------|-----------------------------------------------|
|--------------------------------|-----------------------------------------------|


    E   S S  S S  S S  S  S  S  S  S  S  S  S
|------12---12---12---13-15-13-12-13-15-------|
|---------------------------------------17-18-|
|---------------------------------------------|
|---------------------------------------------|
|---------------------------------------------|
|---------------------------------------------|
|
|   E   E    E    E    E     E     Q
|-------6----5----3----1-----5----10----------|
|---------------------------------------------|
|---------------------------------------------|
|---------------------------------------------|
|-<24>----------------------------------------|
|---------------------------------------------|
|
|   E   S S  E    E    S  S  S  S  S  S  S  S
|------12---12---12---13-15-13-12-13-15-------|
|---------------------------------------17-18-|
|---------------------------------------------|
|---------------------------------------------|
|---------------------------------------------|
|---------------------------------------------|


    S    S    S    S    S    S    S    S    E    S    S    S    S   S  S
|------------------------------------------------------------------------|
|-<20>-<22>-<20>-<18>-<20>-<22>------<20>-<22>-<23>-<22>-<20>--18--17-15-|
|-------------------------------<22>-------------------------------------|
|------------------------------------------------------------------------|
|------------------------------------------------------------------------|
|------------------------------------------------------------------------|
|
|  +Q                   Q                   H
|-(10)------------------9------------------------------------------------|
|------------------------------------------------------------------------|
|------------------------------------------------------------------------|
|------------------------------------------------------------------------|
|------------------------------------------------------------------------|
|------------------------------------------------------------------------|
|
|   S    S    S    S    S    S    S    S    E    S    S    S    S   S  S
|------------------------------------------------------------------------|
|-<20>-<22>-<20>-<18>-<20>-<22>------<20>-<22>-<23>-<22>-<20>-<18>-17-15-|
|-------------------------------<22>-------------------------------------|
|------------------------------------------------------------------------|
|------------------------------------------------------------------------|
|------------------------------------------------------------------------|


   E  S S  Q   +E     E  E  E    Q.     E  E    E   E     E
|--------------------15-13-12-|-10-----10--9----9--10----12-|
|-14-15---17--(17)------------|-----------------------------|
|-----------------------------|-----------------------------|
|-----------------------------|-----------------------------|
|-----------------------------|-----------------------------|
|-----------------------------|-----------------------------|
|
|  Q       Q   +S  S  E  E  E    Q   Q     S S  E  +S  S  E
|-----------------------------|-----------------------------|
|---------11--(11)---11-10-10-|-10---9----10---10-(10)---10-|
|-----------------------------|-----------------------------|
|-----------------------------|-----------------------------|
|-----------------------------|-----------------------------|
|-----------------------------|-----------------------------|
|
|  E  E    Q   +E     E  E  E    Q.     E  E    E   E     E
|--------------------15-13-12-|-10-----10--9----9--10----12-|
|-14-15---17--(17)------------|-----------------------------|
|-----------------------------|-----------------------------|
|-----------------------------|-----------------------------|
|-----------------------------|-----------------------------|
|-----------------------------|-----------------------------|


   Q   Q   H               H             E  S S   S  S  E
|-----------------------|------------------------------------|
|-10--------------------|------------------10----10----10----|
|-----------------------|------------------------------------|
|-----------------------|------------------------------------|
|-----------------------|------------------------------------|
|-----------------------|------------------------------------|
|
|  Q   Q   Q   +S  S  E    Q   +S  S  E  Q       +S  S  S  S
|-----------------------|------------------------------------|
|-----11----------------|------------------------------------|
|-10--------------------|------------------------------------|
|---------11--(11)---11-|-12--(12)---12-14------(14)---12-14-|
|-----------------------|------------------------------------|
|-----------------------|------------------------------------|
|
|  Q   Q   H               H             E  S S   S  S  E
|-----------------------|------------------------------------|
|-10--------------------|------------------10----10----10----|
|-----------------------|------------------------------------|
|-----------------------|------------------------------------|
|-----------------------|------------------------------------|
|-----------------------|------------------------------------|


   S  S  S  S  S  S  S  S  S  S  S  S  S  S  S  S
|-------------------------------------------------|
|-11-13-11-10-12-13----12-13-15-13-12-14-15----14-|
|-------------------14----------------------16----|
|-------------------------------------------------|
|-------------------------------------------------|
|-------------------------------------------------|
|
|  Q           Q           E     S  S  S  S  S  S
|-------------------------------------------------|
|-------------------------------------------------|
|-------------------------------------------------|
|-15----------------------------14----14----14----|
|-------------------------------------------------|
|-------------------------------------------------|
|
|  S  S  S  S  S  S  S  S  S  S  S  S  S  S  S  S
|-------------------------------------------------|
|-11-13-11-10-12-13----12-13-15-13-12-14-15----14-|
|-------------------14----------------------16----|
|-------------------------------------------------|
|-------------------------------------------------|
|-------------------------------------------------|


   Q           Q              E         S    S    S    S    E
|-------------------------------------------------------------------|
|-15-----------------------------------17--------17--------17-------|
|-------------------------------------------------------------------|
|-------------------------------------------------------------------|
|-------------------------------------------------------------------|
|-------------------------------------------------------------------|
|
|  S  S  S  S  S  S  S   S    S    S    S    S    S    S    S    S
|-------------------------------------------------------------------|
|-------------------------------------------------------------------|
|-------------------------------------------------------------------|
|-15-17-15-14-16-17-------------------------------------------------|  
|-------------------19-<21>-<22>-<24>-<22>-<21>-<23>-<24>-<21>-<23>-|
|-------------------------------------------------------------------|
|
|  Q           Q              E         E         S    S    E
|-------------------------------------------------------------------|
|-15-----------------------------------17--------17--------17-------|
|-------------------------------------------------------------------|
|-------------------------------------------------------------------|
|-------------------------------------------------------------------|
|-------------------------------------------------------------------|


    S    S    S    S    S    S    S    S    S    S    S    S    S    S    S    S   |
|---------------------------------------------------------------------------------||
|-<18>-<20>-<18>-<17>-<19>-<20>------<19>-<20>-<22>-<20>-<19>-<21>-<22>------<21>-||
|-------------------------------<21>------------------------------------<23>------||
|---------------------------------------------------------------------------------||
|---------------------------------------------------------------------------------||
|---------------------------------------------------------------------------------||

   E    E    E      E      Q     Q
-------------------------------------------|
-<22>--------------------------------------|
-------------------------------------------|
------<23>-<24>---<24>---<24>--<23>--------|
-------------------------------------------|
-------------------------------------------|

|
|   Q                   E         S    S    Q                   E.             S  |
|---------------------------------------------------------------------------------|
|---------------------------------------------------------------------------------|
|---------------------------------------------------------------------------------|
|-------------------------------------------------------------<21>-----------<21>-|
|-<24>----------------<24>-----------<24>-<22>------------------------------------|
|---------------------------------------------------------------------------------|

    E    E    E      E      Q    +S  S  E
|-------------------------------------------|
|-------------------------------------------|
|-------------------15-----14---(14)---14---|
|-<19>--17---15-----------------------------|
|-------------------------------------------|
|-------------------------------------------|
|
|   S    S    S    S    S    S    S    S    S    S    S    S    S    S    S    S  |
|---------------------------------------------------------------------------------|
|--18--<20>-<18>-<17>-<19>-<20>------<19>-<20>-<22>-<20>-<19>-<21>-<22>------<21>-|
|-------------------------------<21>------------------------------------<23>------|
|---------------------------------------------------------------------------------|
|---------------------------------------------------------------------------------|
|---------------------------------------------------------------------------------|

    E    E    S  S   S  S   Q     Q
|-------------------------------------------|
|-<22>--------------------------------------|
|-------------------------------------------|
|------<23>-<24>---<24>---<24>--<23>--------|
|-------------------------------------------|
|-------------------------------------------|


    H      +S  S E Q      E.   S    Q     H             Q       Q     +H
|---------------------|-----------------------------|-------------------------*|
|---------------------|-----------------------------|-------------------------*|
|---------------------|-----------------------------|-------------------------*|
|-<24>----(24)--------|-<24>-<24>-<23>--<24>--------|-<23>----<24>--(<24>)----*|
|---------------------|-----------------------------|-------------------------*|
|---------------------|-----------------------------|-------------------------*|
|
|   H       H             E.   S    Q     Q     Q      +E   E   Q     +H
|---------------------|-----------------------------|-------------------------*|
|--12-----------------|--12---12---10----10----10---|-(10)-10--10----(10)-----*|
|---------------------|-----------------------------|-------------------------*|
|---------------------|-----------------------------|-------------------------*|
|---------------------|-----------------------------|-------------------------*|
|---------------------|-----------------------------|-------------------------*|
|
|   H      +S  S E Q      E.   S    Q     Q     Q       Q       Q     +H
|---------------------|-----------------------------|-------------------------*|
|---------------------|-----------------------------|-------------------------*|
|---------------------|-----------------------------|-------------------------*|
|-<24>----(24)--------|-<24>-<24>-<23>--<24>--<24>--|-<23>----<24>---(24)-----*|
|---------------------|-----------------------------|-------------------------*|
|---------------------|-----------------------------|-------------------------*|


Duration Legend
---------------
W - whole; H - half; Q - quarter; E - 8th; S - 16th; T - 32nd;
+ - note tied to previous; . - note dotted; .. - note double dotted
Uncapitalized letters represent notes that are staccato (1/2 duration).
Irregular groupings are notated above the duration line. Duration letters
will always appear directly above the note/fret number they represent the
duration for. Duration letters with no fret number below them represent
rests.  Multi-bar rests are notated in the form Wxn, where n is the number
of bars to rest for. Low melody durations appear below the staff

Tablature Legend
----------------
 h   - hammer-on
 p   - pull-off
 /\  - slide into or out of (from/to "nowhere")
 s   - legato slide
  - natural harmonic
[n]  - artificial harmonic
n(n) - tapped harmonic

Misc Legend
-----------
 |  - bar
||  - double bar
||o - repeat start
o|| - repeat end
*|  - double bar (ending)
 :  - bar (freetime)
 $  - Segno
 &  - Coda

***********************************************
Generated using Power Tab Editor by Brad Larsen
http://powertab.guitarnetwork.org
***********************************************

Tap to rate this tab
# A B C D E F G H I J K L M N O P Q R S T U V W X Y Z