Song name
# A B C D E F G H I J K L M N O P Q R S T U V W X Y Z

Wolfgang Amadeus Mozart - Alla Turca tab

Composition:Rondo alla Turca from Sonata No.11 in A minor KV311
Composed by:Wolfgang Amadeus Mozart
Tabbed by:Galjo

Tab legend:
h-hammer on
|--3--| - Triplets

E-----------------------------7h5-4h5-7h5-4h5h8---5-7-8--------8---------8-----------|
B------------------5--6h5h4h5--------------------------10-8-10---10-8-10---10-8-7-5--|
G--------5--7h5h4h5------------------------------------------------------------------|
D-9h7h6h7----------------------------------------------------------------------------|
A------------------------------------------------------------------------------------|
E------------------------------------------------------------------------------------|

E-------3-3-5-3-------------3-3-5-3-------------------------------------------------------|
B--5h6--5-5-----6-5-3--5h6--5-5-----6-5-3-------------------------------------------------|
G--5h5-----------------5h5------------------5h7--9--9-10-9-7--------5h7--9--9-10-9-7------|
D-------------------------------------------7h9-10-10--------10-9---7h9-10-10--------10-9-|
A-----------------------------------------------------------------------------------------|
E-----------------------------------------------------------------------------------------|

E-----------------------------7h5-4h5-7h5-4h5h8--------7-8-7-5-4-5-0-1-0---------|
B------------------5--6h5h4h5--------------------10-10-------------------1-------|
G--------5--7h5h4h5--------------------------------------------------------1-2---|
D-9h7h6h7------------------------------------------------------------------------|
A--------------------------------------------------------------------------------|
E--------------------------------------------------------------------------------|

E-------9-------9----------------7-----------9-------9------------7-----5----|
B-10-12---10-12---12-10-9-7-9-10---9---10-12---10-12----12-10-9-7---9-5------|
G----------------------------------------------------------------------------|
D----------------------------------------------------------------------------|
A----------------------------------------------------------------------------|
E----------------------------------------------------------------------------|

E-9h10h9h7----7---------------------------------------------------7-9-8-9-7-9------|
B----------10---10-9-7-10-9-7---7-9--------------7-6-7-9-10-9-10-------------------|
G-----------------------------9-----10-6-7-10-6------------------------------------|
D----------------------------------------------------------------------------------|
A----------------------------------------------------------------------------------|
E----------------------------------------------------------------------------------|

E-9h10h9h7----7-------------------------------------------------------------------|
B----------10---10-9-7-10-9-7-----------------------------------------------------|
G-----------------------------9-10-12-9----8-9-----8-9-11-8--------8--------------|
D----------------------------------------11---11-------------10-11---10-11--------|
A---------------------------------------------------------------------------------|
E---------------------------------------------------------------------------------|

E---------------------------------------------------------------------------|
B-------------------7-9-10-10-9-7-----------------------7-9-10-11-12--------|
G-9-7-6-------6-7-9---------------9-9-7-6---------6-7-9---------------------|
D-------9-7-9-----------------------------9---7-9---------------------------|
A---------------------------------------------------------------------------|
E---------------------------------------------------------------------------|

E---------------------------------------------------------------------------|
B------------------7-9-10-10-9-7--------------------------------------------|
G-9-7-6------6-7-9---------------9-9-7-6-------9-------7--------------------|
D------9-7-9-----------------------------9--11----11-9-------9--------------|
A-----------------------------------------------12--------11---12-----------|
E---------------------------------------------------------------------------|

  |--3--| |--3--| |--3--|    |--3--| |--3--|  |--3--| |--3--| |--3--|    |--3--| |--3--|   
E-10-1010-11h10h8-11h10h8-11-10-1010-11-8-88--10-1010-11h10h8-11h10h8-11-10-1010-11-8-88--|
B-----------------------------------------------------------------------------------------|
G-----------------------------------------------------------------------------------------|
D-----------------------------------------------------------------------------------------|
A-----------------------------------------------------------------------------------------|
E-----------------------------------------------------------------------------------------|

E-10---10-----10-10-10----10-----------|
B----10---10----10-10-10-----10--------|
G--------------------------------------|
D--------------------------------------|
A--------------------------------------|
E--------------------------------------|

I'm not sure for the end of the composition.
I think this is correct about 95% but If
you have any questions about this tab please email me at:Galjo15@gmail.com
Tap to rate this tab
 
# A B C D E F G H I J K L M N O P Q R S T U V W X Y Z