Song name
# A B C D E F G H I J K L M N O P Q R S T U V W X Y Z

Wolfgang Gartner - Illmerica tab

Drop D Tuning (D-A-D-G-B-e)

Main Riff:
_______________________________________
e -----------------------------|
B -----------------------------|
G -----------------------------|
D -----------------------------|
A -5-5p3-----------------3-0---|
D -------7-7s8-8-7-3--3-5------|

Second Riff (It changes a little bit here and there but this is the gist of it):
_______________________________________
e -----------------------------|
B -----------------------------|
G -----------------------------|
D -----------------------------|
A -5-5-3h5-3h5-----------------|
D -------------7-3-0-----------|

Hope this helped! Enjoy! :D

Link to Wolfgang Gartner's Page:http://www.myspace.com/djwolfganggartner
Tap to rate this tab
 
# A B C D E F G H I J K L M N O P Q R S T U V W X Y Z