Song name
# A B C D E F G H I J K L M N O P Q R S T U V W X Y Z

Wolfgang Petry - Ruhrgebiet tab

Wolfgang Petry - Ruhrgebiet

Intro

Strophe

         H
Wenn am Abend die Sonne versinkt
   G
Vergessen die Arbeit das Leben beginnt
  D
für das was wir lieben uns krumm gemacht
     A
wir lassen uns fallen kopfüber in die Nacht

   H
Ihr habt mich gefangen und das gnadenlos
    G
Aus euren Krallen komm ich nicht mehr los
    D
ich atme tief durch und denke egal
     A
Euer Herz ist aus Gold eure Seele aus Stahl


Ref
             D
Ihr seid das Ruhrgebiet
                   A
die Droge die mich süchtig macht
             E
Das hätt ich nie gedacht
 G                       A
komm von euch nicht mehr los
             D
Ihr seid das Ruhrgebiet
                   A
Die Droge die mich aufrecht hält
              E
Wo nur die Freundschaft zählt
 G                  A
Ihr seid das Ruhrgebiet

Und das Ruhrgebiet bin ich


Strophe

         H
Zwischen Rhein und Weser, das Herz der Welt
   G
Hier bist du keine Nummer, keiner sieht auf Dein Geld
  D
Eine grüne Oase zwischen Kohle und Stahl,
     A
Wenn wir zusammen feiern, ist uns alles egal

   H
Ihr habt mich gefangen und das gnadenlos
    G
Aus euren Krallen komm ich nicht mehr los
    D
ich atme tief durch und denke egal
     A
Euer Herz ist aus Gold eure Seele aus Stahl


Solo

Bridge

F
Hier kannst du leben beim Fussball und beim Bier
     Bb
bist nie alleine bei uns hier im Revier
     G
wir gehen gemeinsam durch dick und dünn
 C                          A
hier ist meine Heimat hier gehör ich hin


Ref
             D
Ihr seid das Ruhrgebiet
                   A
die Droge die mich süchtig macht
             E
Das hätt ich nie gedacht
 G                       A
komm von euch nicht mehr los
             D
Ihr seid das Ruhrgebiet
                   A
Die Droge die mich aufrecht hält
              E
Wo nur die Freundschaft zählt
 G                  A
Ihr seid das Ruhrgebiet

Und das Ruhrgebiet bin ich



Ref Chorus
             D
Wir sind das Ruhrgebiet
                   A
die Droge die mich süchtig macht
             E
Das hätt ich nie gedacht
 G                       A
komm von euch nicht mehr los
             D
Wir sind das Ruhrgebiet
                   A
Die Droge die mich aufrecht hält
              E
Wo nur die Freundschaft zählt
 G                  A
Ihr seid das Ruhrgebiet
MUTE
Und das Ruhrgebiet bin ich
 
Intro


e|----------14-12-10---10-10-10-10-10-12-9------------|
B|-10-10-10--------------------------------12-10------|
G|----------------------------------------------------|
D|----------------------------------------------------|
A|----------------------------------------------------|
E|----------------------------------------------------|

e|----------15-14-12---12-12-12-10-12-12---------14-14-14-12-10-|
B|-10-10-10--------------------------------10-10----------------|
G|--------------------------------------------------------------|
D|--------------------------------------------------------------|
A|--------------------------------------------------------------|
E|--------------------------------------------------------------|


Solo

e|--------------------------------------------------------------|
B|-14b151515--14b151515--14b151515--14b15-14b15-14b15-14b15-----|
G|--------------------------------------------------------------|
D|--------------------------------------------------------------|
A|--------------------------------------------------------------|
E|--------------------------------------------------------------|

e|--12--12--12--12--12------------------------------------------|
B|--13b-13b-13b-13b-13b-10-10~----------------------------------|
G|-----------------------------12-12-12-12-12-12-12-12-12-12-12-|
D|-----------------------------12-12-12-12-12-12-12-12-12-12-12-|
A|--------------------------------------------------------------|
E|--------------------------------------------------------------|

e|------------------------------|
B|------------------------------|
G|-12-12-12-12-12-12-12-12-12---|
D|-12-12-12-12-12-12-12-12-12---|
A|------------------------------|
E|------------------------------|

e|-------------------------------------------------|
B|----15----15----15----15----17----17-------------|
G|-16----16----16----16----18----18----18~---------|
D|-------------------------------------------------|
A|-------------------------------------------------|
E|-------------------------------------------------|
Tap to rate this tab
# A B C D E F G H I J K L M N O P Q R S T U V W X Y Z