Song name
# A B C D E F G H I J K L M N O P Q R S T U V W X Y Z

Wolfgang Petry - Ruhrgebiet tab

Help us improve GuitareTab! Take a short survey!
-------------------------------------------------------------------------------
			     Ruhrgebiet  - Wolfang Petry
-------------------------------------------------------------------------------
Tabbed by: Astaldo
Email:

Tuning: standart

e|-------10-10-------10-10-------10-10-------10-10-------10-10-10------------|
B|-14b15-------14b15-------14b15-------14b15-------14b15---------------------|
G|---------------------------------------------------------------------------|
D|---------------------------------------------------------------------------|
A|---------------------------------------------------------------------------|
E|---------------------------------------------------------------------------|

e|-12-12-12---12---12---12---------------------------------------------------|
B|-------10b--10b--10b--10br-8-8~--------------------------------------------|
G|----------------------------------12-12-12-11h12-12-12-11h12-12-12---------|
D|----------------------------------12-12-12-11h12-12-12-11h12-12-12---------|
A|---------------------------------------------------------------------------|
E|---------------------------------------------------------------------------|

e|------------------------------------------------------------------------------|
B|------------------------------15p12-15p12-15p12-15p12-15p12-15p12-15p12-15p12-|
G|--11h12-12-12-11h12-12-12-12--------------------------------------------------|
D|--11h12-12-12-11h12-12-12-12--------------------------------------------------|
A|------------------------------------------------------------------------------|
E|------------------------------------------------------------------------------|

e|---------------------------------------------------------------------------|
B|-17p14-17p14-17p14-17p14-17p14-17p14-17p14-17~-----------------------------|
G|---------------------------------------------------------------------------|
D|---------------------------------------------------------------------------|
A|---------------------------------------------------------------------------|
E|---------------------------------------------------------------------------|


| /  slide up
| \  slide down
| h  hammer-on
| p  pull-off
| ~  vibrato
| +  harmonic
| x  Mute note
===============================================================================
Related for Ruhrgebiet tab