Song name
# A B C D E F G H I J K L M N O P Q R S T U V W X Y Z

Wolfgang - I tab

                         "I..." BY WOLFGANG
                       transcribed by freongang
                  visit me at: freongang_81@yahoo.com
                        freongang_08@yahoo.com

 intro: hoooooooo!!!
     
e|-------------------------------------------------------------------|
B|-------------------------------------------------------------------|
G|-------------------------------------------------------------------|
D|---------------------------------------------------5-5-5-5-5-5/4-0-|
A|-3/4-0-4--4-4-4-4--3/4-0-4--4-4-4-4--3/4-0-4-4-4-4-3-3-3-3-3-3/2-0-|
E|-1/2-0-2--2-2-2-2--1/2-0-2--2-2-2-2--1/2-0-2-2-2-2-----------------|

 so don't do...
e|------------------|
B|------------------|
G|--9-9-9--7--------|
D|--9-9-9--7--------|
A|--7-7-7--5--------|
E|------------------|
 
  ooooh, i stand by your side
e|--------------------------|
B|-9--9-9-------------------|
G|-9--9-9--9-12-11-7-9------|
D|-7--7-7--7-10-9--5-7------|
A|--------------------------|
E|--------------------------|

           sus!!! ang hirap ng solo... kakaiba tlga magbitaw ng lead si 
           manuel.... cge subukan ko ulit, w8 nyo nlng muna ha'
                     
                       "FOR WOLFGANG FANS USE ONLY"
Tap to rate this tab
# A B C D E F G H I J K L M N O P Q R S T U V W X Y Z