Song name
# A B C D E F G H I J K L M N O P Q R S T U V W X Y Z

Wolfgang - John Of The Cross tab

               JOHN OF THE CROSS BY: WOLFGANG
                  TRANSCRIBED BY FREONGANG
            VISIT ME AT: freongang_81@yahoo.com
                  freongang_08@yahoo.com

  WELCOME BACK SA MGA TAONG LOBO, KAY TAGAL NAMIN KAYONG HINANTAY
  WLA PA RING KUPAS SI MANUEL LEGARDA, ASTIG KA PA RIN,
  WITH YOUR DEMONIC HANDS, DINOSAUR GUITAR RIFFS.. MONSTER KA PA RIN...

Intro/verse:
e|--------------------------------|
B|--------------------------------|
G|--------------------------------|
D|--------------------------------|
A|-------0---------------1--------|
E|--3-5-----3-5----0-1-3----------|
Pm--------------------------------|

     X4
e|-------------------------------------|
B|-------------------------------------|
G|-------------------------------------|
D|-------------------------------------|
A|------3-2----------------------------|
E|--0-0-1-0--1-1-1-1-3-3-3-3-0-0-0-0---|
Pm-------------------------------------|

     X2
e|----------------------------|
B|-(LET RING)-----------------|
G|--5-----7----8----10--------|
D|--5-----7----8----10--------|
A|--3-----5----6----8---------|
E|----------------------------|
Tap to rate this tab
# A B C D E F G H I J K L M N O P Q R S T U V W X Y Z