Song name
# A B C D E F G H I J K L M N O P Q R S T U V W X Y Z

Wolfgang - Rp Deathsquad tab

             RP DEATHSQUAD BY: WOLFGANG
              TRANSCRIBED BY: FREONGANG
         VISIT ME AT: freongang_81@yahoo.com
               freongang_08@yahoo.com

    Welcome back sa mga taong lobo, kay tagal nmin kayong hinantay!!!
    wala pa ring kupas si Manuel Legarda, astig ka pa rin....


Intro:  X6
e|------------------------------------------|
B|------------------------------------------|
G|------------------------------------------|
D|------------------------------------------|
A|--------5---------------------------------|
E|--5h3-X-----0-3-5---5h3---0-1-3-----------|
Pm------------------------------------------|

Verse:
e|-------------------|
B|-------------------|
G|-------------------|
D|--(let ring)-------|
A|-------5-----------|
E|--5h3--------------|

Feeling now is calling you… X4
e|------------------------------|
B|------------------------------|
G|--------5-5-------------------|
D|-7-7-7--5-5--7-7-----5-5------|
A|-7-7-7--3-3--7-7---0-5-5------|
E|-5-5-5-------5-5---0-3-3------|
Pm------------------------------|

         X2
e|--------------------------------|
B|--------------------------------|
G|--------------------------------|
D|--7/5-7---7-7-7-7-----5-5-------|
A|--7/5-7---7-7-7-7---0-5-5-------|
E|--5/3-5---5-5-5-5---0-3-3-------|
Pm--------------------------------|

         X2 next cont…
e|------------------------------------------------------|
B|------------------------------------------------------|
G|------------------------------------------------------|
D|--7/5-7---7-7-7-7-----5-5-----------------------------|
A|--7/5-7---7-7-7-7---0-5-5-----------------------------|
E|--5/3-5---5-5-5-5---0-3-3--0-0-0-0-0-0-0-0-0-0-0-0----|
Pm------------------------------------------------------|

e|----------------------------|
B|---(let ring)---------------|
G|----------------------------|
D|--7-----5------3-------2----|
A|--7-----5------3-------2----|
E|--5-----3------1-------0----|

e|------------------------------------------------------------------|
B|------------------------------------------------------------------|
G|------------------------------------------------------------------|
D|------------------------------------------------------------------|
A|------------------------------------------------------------------|
E|-5-5-5-5-5-5-5-5-3-3-3-3-3-3-3-3-1-1-1-1-1-1-1-1-0-0-0-0-0-0-0----|
Pm------------------------------------------------------------------|

e|----------|
B|----------|
G|----------|
D|-5-5-3-2--|
A|-5-5-3-2--|
E|-3-3-1-0--|

Im still working for the solo, nasa kalahati na ako…. I’ll post it soon nlng… tnx!!!
Tap to rate this tab
# A B C D E F G H I J K L M N O P Q R S T U V W X Y Z