Song name
# A B C D E F G H I J K L M N O P Q R S T U V W X Y Z

Wolfgang - Novus Is Burning tab

--------------------------------------
Novus Is Burning - Wolfgang
--------------------------------------

I dedicated this song to my classmates that are addict RF gamer nikos, felix, 
remo, bryan, russel and the others!

hope you enjoy it!!! :))

not sure if 100% perfect, for me its only 95% or 89%.

email: timlloyd_pangan@yahoo.com
friendster: timlloyd_pangan@yahoo.com

Tabber: Timothy Lloyd
Song: Novus Is Burning
Band: Wolfgang
Album: Villains
Year: 2008

Intro:

Drumbeat 

e|--------------------------|--------------------------|--------------------------|
B|--------------------------|--------------------------|--------------------------|
G|--------------------------|--------------------------|--------------------------|
D|--------------------------|--------------------------|--------------------------|
A|-------2------------4-----|-------2------------4-----|-------2------------4-----|
E|--4-2-4-4--4-2-4-2-4-4-4-2|--4-2-4-4--4-2-4-2-4-4-4-2|--4-2-4-4--4-2-4-2-4-4-4-2|  

e|--------------------------|
B|--------------------------|
G|--------------------------|
D|--------------------------|
A|-------2------------4-----|
E|--4-2-4-4--4-2-4-2-4-4-4-2| 

Verse 1:

e|-----------------------|---------------------|-----------------------|
B|-----------------------|---------------------|-----------------------|
G|-----------------------|---------------------|-----------------------|
D|----------------4/6-6/7|---------------------|----------------4/6-6/7|
A|--6/4-6-6/4-6-4-2/4-4/5|--6/4-6-6/4-6-4-4/3-4|--6/4-6-6/4-6-4-2/4-4/5|
E|--4/2-4-4/2-4-2--------|--4/2-4-4/2-4-2-2/1-2|--4/2-4-4/2-4-2--------|

                |-------------------|
                |-------------------|
                |-------------------|
                |----------------4-3|
                |--6/4-6-6/4-6-4-2-1|
continuation... |--4/2-4-4/2-4-2----| (x2) 
(in second part the ending chord is G#, don't play the B chord)

e|-----------------------|---------------------|-----------------------|
B|-----------------------|---------------------|-----------------------|
G|-----------------------|---------------------|-----------------------|
D|----------------4/6-6/7|---------------------|----------------4/6-6/7|
A|--6/4-6-6/4-6-4-2/4-4/5|--6/4-6-6/4-6-4-4/3-4|--6/4-6-6/4-6-4-2/4-4/5|
E|--4/2-4-4/2-4-2--------|--4/2-4-4/2-4-2-2/1-2|--4/2-4-4/2-4-2--------|

|-------------------|-----------------|
|-------------------|-----------------|
|-------------------|-----------------|
|----------------4-3|-----------------|
|--6/4-6-6/4-6-4-2-1|--66666666-444444|
|--4/2-4-4/2-4-2----|--44444444-222222|

e|--------------------------|--------------------------|--------------------------|
B|--------------------------|--------------------------|--------------------------|
G|--------------------------|--------------------------|--------------------------|
D|--------------------------|--------------------------|--------------------------|
A|-------2------------4-----|-------2------------4-----|-------2------------4-----|
E|--4-2-4-4--4-2-4-2-4-4-4-2|--4-2-4-4--4-2-4-2-4-4-4-2|--4-2-4-4--4-2-4-2-4-4-4-2|  

e|--------------------------|
B|--------------------------|
G|--------------------------|
D|--------------------------|
A|-------2------------4-----|
E|--4-2-4-4--4-2-4-2-4-4-4-2|

Verse 2:

e|-----------------------|---------------------|-----------------------|
B|-----------------------|---------------------|-----------------------|
G|-----------------------|---------------------|-----------------------|
D|----------------4/6-6/7|---------------------|----------------4/6-6/7|
A|--6/4-6-6/4-6-4-2/4-4/5|--6/4-6-6/4-6-4-4/3-4|--6/4-6-6/4-6-4-2/4-4/5|
E|--4/2-4-4/2-4-2--------|--4/2-4-4/2-4-2-2/1-2|--4/2-4-4/2-4-2--------|

|-------------------|----------------------|
|-------------------|----------------------|
|-------------------|----------------------|
|----------------4-3|----------------------|
|--6/4-6-6/4-6-4-2-1|--6666666666-444444444|
|--4/2-4-4/2-4-2----|--4444444444-222222222|

e|--------------------------|--------------------------|--------------------------|
B|--------------------------|--------------------------|--------------------------|
G|--------------------------|--------------------------|--------------------------|
D|--------------------------|--------------------------|--------------------------|
A|-------2------------4-----|-------2------------4-----|-------2------------4-----|
E|--4-2-4-4--4-2-4-2-4-4-4-2|--4-2-4-4--4-2-4-2-4-4-4-2|--4-2-4-4--4-2-4-2-4-4-4-2|  

e|--------------------------|--------|
B|--------------------------|--------|
G|--------------------------|--11-9-8|
D|--------------------------|--9--7-6|
A|-------2------------4-----|--------|
E|--4-2-4-4--4-2-4-2-4-4-4-2|--------|

Solo : (sorry folks, i can't write there the shred part 'cuz its hard to "kapa")

e|----------------------------------|---------------------------|----------------8-8v|
B|----------------------------------|-----7-10-7-9-10-7---------|-----7-10-7-9-10----|
G|--9p8-8h9-------------------------|----8-----------8-9-8-9-8-6|----8---------------|
D|---------11p9-9h11-9-7-7h9-7-6-4/6|--11-----------------------|--11----------------|
A|----------------------------------|---------------------------|--------------------|
E|----------------------------------|---------------------------|--------------------|

e|----------------------------------|
B|----------------------------------|
G|--9p8-8h9-------------------------|
D|---------11p9-9h11-9-7-7h9-7-6-4/6|
A|----------------------------------|
E|----------------------------------|

Verse 3:

e|-----------------------|---------------------|-----------------------|
B|-----------------------|---------------------|-----------------------|
G|-----------------------|---------------------|-----------------------|
D|----------------4/6-6/7|---------------------|----------------4/6-6/7|
A|--6/4-6-6/4-6-4-2/4-4/5|--6/4-6-6/4-6-4-4/3-4|--6/4-6-6/4-6-4-2/4-4/5|
E|--4/2-4-4/2-4-2--------|--4/2-4-4/2-4-2-2/1-2|--4/2-4-4/2-4-2--------|

|-------------------|------------|
|-------------------|------------|
|-------------------|------------|
|----------------4-3|------------|
|--6/4-6-6/4-6-4-2-1|--6666666666|
|--4/2-4-4/2-4-2----|--4444444444|

Outro:

e|--------------------------|
B|--------------------------|
G|--------------------------|
D|--------------------------|
A|-------2------------4-----|
E|--4-2-4-4--4-2-4-2-4-4-4-2| (x12)

Legend: 

"/" - slide
"p" - pull off
"h" - hammer

if there are corrections, email me :))
Tap to rate this tab
# A B C D E F G H I J K L M N O P Q R S T U V W X Y Z