Song name
# A B C D E F G H I J K L M N O P Q R S T U V W X Y Z

Wolfgang - Kung Gusto Mo Pa tab

Kung Gusto Mo Pa?
Wolfgang
Villains
Tinab ni jem

Para sa mga adakrabs ko "The CoRnmunnist Party".
At sa Wolfgang... DA BEST PA RIN TALAGA!!!!!!!
RAK eN ROLL!!!!!!!

e|--------------------------------------|
B|-----3-2-0-1br------------------------|
G|---0-----------2/4-0h4br---0h40-------|
D|-------------------------5------------|
A|--------------------------------------|
E|--------------------------------------|

e|--------------------------------------|
B|-----3-2-0-1br-----------------0------|
G|---0-----------2/4-0h4br---0h4--------|
D|-------------------------5------------|
A|--------------------------------------|
E|--------------------------------------|
I
G-C9
Wala na ang araw 
Nasa palad tayo ng takipsilim 
Bumubulong sa atin ang hangin 
Ako'y iyo at ikaw ay akin 

Koro
G-C-F-C-G-C--G
Mga pangako ay nasusunog sa ilalim ng bituin 
Ang panaginip na gawa lang sa buhangin 

e|--------------------------------------|
B|-----3-2-0-1br------------------------|
G|---0-----------2/4-0h4br---0h40-------|
D|-------------------------5------------|
A|--------------------------------------|
E|--------------------------------------|

e|--------------------------------------|
B|-----3-2-0-1br-----------------0------|
G|---0-----------2/4-0h4br---0h4--------|
D|-------------------------5------------|
A|--------------------------------------|
E|--------------------------------------|
II
Wala na ang araw 
Nakaluhod na ang budhi 
May lihim na umiikot 
Mag-ingat ka baka ika'y mahulog 

Koro 2
Mga pangako na lumiliyab sa ilalim ng bituin 
May pasyon na gumagapang sa dilim 

Tulay
F-C-G
Magsasayaw sa kasalanan ng isa't isa 
Ang walang katapusang apoy ng kalikasan 
Kung gusto mo pa 

G-C
e|--------------------------------------|
B|-----3-2-0-1br------------------------|
G|---0-----------2/4-0h4br---0h40-------|
D|-------------------------5------------|
A|--------------------------------------|
E|--------------------------------------|

e|--------------------------------------|
B|-----3-2-0-1br-----------------0------|
G|---0-----------2/4-0h4br---0h4--------|
D|-------------------------5------------|
A|--------------------------------------|
E|--------------------------------------|
Wala na ang araw 
Nasa lilim tayo ng buwan 

F-C-G
Tayo na 
Ang kapalaran ay kasarapan 
Hangga't wala nang ibang gagawin kundi 
F-C-Eb-Bb-        G(hold)
Maghintay ng umaga

Hindi 100% sure. Kung mali man malamang bungol o bingi na ako,
check nyo nlng, o e-mail lahat ng reklamo sa
patatasland@yahoo.com..... Yeah!
Tap to rate this tab
# A B C D E F G H I J K L M N O P Q R S T U V W X Y Z