Song name
# A B C D E F G H I J K L M N O P Q R S T U V W X Y Z

Wolfgang - John Of The Cross tab

JOHN OF THE CROSS by Wolfgang


INTRO:

e|---------------------|
B|---------------------|
G|---------------------|
D|---------------------|
A|-1-3-3-1-3-------1-1-|
E|-----------1-3-5-----|


VERSE:

e|---------------------------|
B|---------------------------|
G|---------------------------|
D|---------------------------|
A|-8-10-10-8-10-10-1-3-5-8-8-|
E|-8-10-10-8-10-10-1-3-5-8-8-|


CHORUS:

e|-------------------------------|
B|-------------------------------|
G|-------------------------------|
D|-5-5-------8-8--5-5-------6-6--|
A|-3-3-1-3-1-6-6--3-3-1-3-1-4-4--|
E|-----1-3-1----------1-3-1------|

 Tonight.....
e|--------------|
B|--------------| *hindi 'to ganto mismo tugtugin,
G|--------------|  pinakita ko lang yung chords..
D|-5--7--8--10--|  laruin nyo nalang.. hehe..
A|-3--5--6--8---|
E|--------------|

etc...


NITRAM
05-13-10
7:09PM
Tap to rate this tab
 
# A B C D E F G H I J K L M N O P Q R S T U V W X Y Z