Song name
# A B C D E F G H I J K L M N O P Q R S T U V W X Y Z

Wolfgang - The Shaft tab

THE SHAFT by Wolfgang


INTRO:

e|----------------------------|
B|----------------------------|
G|----------------------------| 8x
D|-----------6----------------|
A|-------6-8---------6-8-6----|
E|-6-6-9-------6-6-9-------9--|

e|----------------|
B|----------------|
G|-------------8--|
D|-8-8-8-8-8-6-8--|
A|-8-8-8-8-8-6-6--|
E|-6-6-6-6-6-4----|

VERSE:

e|----------------------|
B|----------------------|
G|---------------6-8-8--| 4x
D|-8-8-8-8-8-6-8-6-8-8--|
A|-8-8-8-8-8-6-8-4-6-6--|
E|-6-6-6-6-6-4-6--------|


REFRAIN:

e|-------------------------------|
B|-------------------------------|
G|-11-101010101010101010--6-8-8--| 3x
D|-11-101010101010101010--6-8-8--|
A|-9--8-8-8-8-8-8-8-8-8---4-6-6--|
E|-------------------------------|

e|--------------------|
B|--------------------|
G|-8-7--7-6--6-5--5-4-|
D|-8-7--7-6--6-5--5-4-|
A|-6-5--5-4--4-3--3-2-|
E|--------------------|


CHORUS:

e|---------------------------------|
B|---------------------------------|
G|--------6----------------6--8-8--| 2x
D|-8-8-8--6--6-6----8-8-8--6--8-8--|
A|-8-8-8--4--6-6----8-8-8--4--6-6--|
E|-6-6-6-----4-4----6-6-6----------|

etc...


NITRAM
05-15-10
11:45 AM
Tap to rate this tab
# A B C D E F G H I J K L M N O P Q R S T U V W X Y Z