Song name
# A B C D E F G H I J K L M N O P Q R S T U V W X Y Z

Wolfgang - Diaspora Mama tab

DIASPORA MAMA by Wolfgang


INTRO 1:

e|--------------|
B|--------------|
G|--------------| 4x
D|-6--9--4--6~--|
A|-6--9--4--6~--|
E|-4--7--2--4~--|

INTRO 2:
   G# B  F#
e|-4--2--2----|
B|-4--4--2----|
G|-5--4--3----| 2x
D|-6--4--4----|
A|-6--2--4----|
E|-4-----2----|


VERSE:
G#      B          F#
 Try so hard to forget
              G#   B    F#
 where you've come from
G#         B      F#
 Don't you ever regret
      G#   B   F#
 being the every man?


REFRAIN:
G#                   B
 If not for what you were, you are nothing
G#                   B
 If not for what you were, you are no one
G#                 B
 Kill all passion, turn away from everything
G#                 B
 Kill all passion, burn up your memories


BRIDGE: (do intro 1...)

 What consolation?

 How do you bury all and everyone

 What consolation? If history be damned


CHORUS:
    no shelter           diaspora             mama
e|------------------------------------------------------|
B|------------------------------------------------------|
G|-4---7------------------------------------------------| 2x
D|-4---7-------4-6-6-x-6-4-6-6-x-6--4-6-6-x-6-4-6-6-x-4-|
A|-2---5-------4-6-6-x-6-4-6-6-x-6--4-6-6-x-6-4-6-6-x-4-|
E|-------------4-4-4-x-4-4-4-4-x-4--4-4-4-x-4-4-4-4-x-4-|
   you.run.....enemies....
e|-----------------------------------|
B|-----------------------------------|
G|-4---7-----------------------------| 4x
D|-4---7-------4-6-6-x-6--4-6-6-x-6--|
A|-2---5-------4-6-6-x-6--4-6-6-x-6--|
E|-------------4-4-4-x-4--4-4-4-x-4--|

e|-----------------------------------|
B|-----------------------------------|
G|-----------------------------------| 4x
D|-4---7-------4-6-6-x-6--4-6-6-x-6--|
A|-4---7-------4-6-6-x-6--4-6-6-x-6--|
E|-2---5-------4-4-4-x-4--4-4-4-x-4--|


ADLIB:

e|---------------------|
B|---------------------|
G|-4-4--6-6--7-7--6-6--|
D|-4-4--6-6--7-7--6-6--|
A|-2-2--4-4--5-5--4-4--|
E|---------------------|

e|---------------------------------------------|
B|---------------------------------------------|
G|-------------------------4-4--6-6--7-7--6-6--| 3x
D|-4-6-6-x-6--4-6-6-x-6----4-4--6-6--7-7--6-6--|
A|-4-6-6-x-6--4-6-6-x-6----2-2--4-4--5-5--4-4--|
E|-4-4-4-x-4--4-4-4-x-4------------------------|

e|----------------------------|
B|----------------------------|
G|----------------------------|
D|-4-6-6-x-6------------------|
A|-4-6-6-x-6--6-5-4---4-5-----|
E|-4-4-4-x-4--------7-----7-4-|


Fill in...

e|-----------------------------------------\
B|----------------------------------------- \
G|-----------------------------------------  \
D|-----------------------------------------   \
A|-----------4--------------------4-4-6-5--    \
E|-444-7-4-7---7-4-2----444-7-4-7----------     \
                                                 2x
e|-----------------------------------------     /
B|-----------------------------------------    /
G|-----------------------------------------   /
D|-----------------------------------------  /
A|-----------4--------------------4-------- /
E|-444-7-4-7---7-4-2----444-7-4-7---7-2-3--/

e|--------------|
B|--------------|
G|--------------|
D|--------------|
A|-----------4~-|
E|-444-7-4-7----|


OUTRO:
               diaspora
e|-------------------------------------|
B|-------------------------------------|
G|-------------------------------------|
D|-----4-----4-----4-----4-----4-----4-|
A|-------------------------------------|
E|-4-7---4-7---4-7---4-7---4-7---4-7---|
               mama
e|-------------------------------------|
B|-------------------------------------|
G|-------------------------------------|
D|-----4-----4-----4-----4-----4-----4-|
A|-------------------------------------|
E|-4-7---4-7---4-7---4-7---4-7---4-7---|

e|-----|
B|-----|
G|-----|
D|-6~--|
A|-6~--|
E|-4~--|


*note: madaming hindi accurate dyan pero katunog naman siguro..


NITRAM
05-15-10
11:30 AM
Tap to rate this tab
# A B C D E F G H I J K L M N O P Q R S T U V W X Y Z