Song name
# A B C D E F G H I J K L M N O P Q R S T U V W X Y Z

Wolfgang - Nine tab

NINE by Wolfgang


INTRO:
      C#m  E   B     Ab 
e|----------------------|
B|----------------------|
G|-4-/6-6-/9-9-4-4-6----| 4x
D|-4-/6-6-/9-9-4-4-6-6--|
A|-2-/4-4-/7-7-2-2-4-6--|
E|-------------------6--|


VERSE:

e|--------------------------|
B|--------------------------|
G|-4-/6-6-6-6-/9-9-4-4-6----| 4x
D|-4-/6-6-6-6-/9-9-4-4-6-6--|
A|-2-/4-4-4-4-/7-7-2-2-4-6--|
E|-----------------------6--|


REFRAIN:
   C#m A
e|-----------|
B|-----------|
G|-6~--------| 4x
D|-6~--7~----|
A|-4~--7~----|
E|-----7~----|


CHORUS:
      
e|--------------------------|
B|--------------------------|
G|-4-/6-6-6-6-/9-9-4-4-6----| 4x
D|-4-/6-6-6-6-/9-9-4-4-6-6--|
A|-2-/4-4-4-4-/7-7-2-2-4-6--|
E|-----------------------6--|
      Ab  B C# Eb F#
e|---------------------\ 
B|--------------------- \ 
G|--------4-6----------  \
D|-4-/6-x-4-6--1--4----   \
A|-4-/6-x-2-4--1--4----    \
E|-4-/6-x------1--4----     \
                             2x
e|---------------------     /
B|---------------------    /
G|--------4-6----------   /
D|-4-/6-x-4-6--6--4----  /
A|-4-/6-x-2-4--6--4---- /
E|-4-/6-x------6--4----/


BRIDGE:

e|-----------------|
B|-----------------|
G|-----------------| 2x
D|-4~--2~--1~--2~--|
A|-4~--2~--1~--2~--|
E|-4~--2~--1~--2~--|


ADLIB:

e|-----------------|
B|-----------------|
G|-----------------| 2x
D|-4~--2~--1~--2~--|
A|-4~--2~--1~--2~--|
E|-4~--2~--1~--2~--|


OUTRO:

e|--------------------------------\
B|-------------------------------- \ 
G|--------------------------------  \
D|--------------------------1-----   \
A|-------2-2------4-2-4-2-4---4-2-    \
E|-6-4-6-----6-4------------------     \
                                     palm muted
e|--------------------------------     /
B|--------------------------------    /
G|--------------------------------   /
D|--------------------------1-----  /
A|-------2-2------4-2-4-2-4------- /
E|-6-4-6-----6-4--------------1-4-/

e|-------------------------------------------|
B|-------------------------------------------|
G|----4--6--4-------------4--6--4------------|
D|-6--4--6--4--1--4----6--4--6--4--1--4--6~--|
A|-6--2--4--2--1--4----6--2--4--2--1--4--6~--|
E|-6-----------1--4----6-----------1--4--6~--|



NITRAM
05-25-10
04:11 PM
Tap to rate this tab
# A B C D E F G H I J K L M N O P Q R S T U V W X Y Z