Song name
# A B C D E F G H I J K L M N O P Q R S T U V W X Y Z

Wolfgang - Novus Is Burning tab

NOVUS IS BURNING by Wolfgang


INTRO:

e|--------------------------------|
B|--------------------------------|
G|--------------------------------| 4x
D|--------------------------------|
A|-6-4-6-9-666-4--6-4-6-12-666-4--|
E|-6-4-6-9-666-4--6-4-6-12-666-4--|


VERSE:

e|--------------------------|
B|--------------------------|
G|--------------------------|
D|--------------------------|
A|-6-4-6--6-6-4-6--9-11-12--|
E|-6-4-6--6-6-4-6--9-11-12--|

e|------------------------|
B|------------------------|
G|------------------------|
D|------------------------|
A|-6-4-6--6-6-4-6--4-3-4--|
E|-6-4-6--6-6-4-6--4-3-4--|

e|--------------------------|
B|--------------------------|
G|--------------------------|
D|--------------------------|
A|-6-4-6--6-6-4-6--9-11-12--|
E|-6-4-6--6-6-4-6--9-11-12--|

e|----------------------|
B|----------------------|
G|----------------------|
D|----------------------|
A|-6-4-6--6-6-4-6--9-8--|
E|-6-4-6--6-6-4-6--9-8--|


REFRAIN:

e|-------------------------------|
B|-------------------------------|
G|-------------------------------| 4x
D|-------------------------------|
A|-12-11--11-11-9--9-9-4-6--6-6--|
E|-12-11--11-11-9--9-9-4-6--6-6--|


CHORUS:

e|--------------------------------|
B|--------------------------------|
G|--------------------------------| 4x
D|--------------------------------|
A|-6-4-6-9-666-4--6-4-6-12-666-4--|
E|-6-4-6-9-666-4--6-4-6-12-666-4--|


ADLIB:

guitar 1: parang sa verse lang..

*wala yung solo part.. di ko kaya e.. hehe

etc...


NITRAM
06-03-10
05:20 PM
Tap to rate this tab
# A B C D E F G H I J K L M N O P Q R S T U V W X Y Z