Guitaretab - guitar tabs
Song name
# A B C D E F G H I J K L M N O P Q R S T U V W X Y Z

Wolfgang - Left Alone Acoustic tab

SONG:LEFT ALONE(ACOUSTIC VER.)
ARTIST:WOLFGANG
TAB BY:LEANDER MARVIN V. MACUTAY

INTRO/STANZA:G-D-E(4X)
REFRAIN:A-G-E
CHORUS:G-D
                                              (HARMONICS)
E|--------------------------------------------||-------|
B|------2h4-4-4-4-4-4-4--2h4------------------||-------|
G|--1h3-----------------------1^3-1^3----1----||--5-7--|
D|-------------------------------------4---1--||--5-7--|
A|--------------------------------------------||-------|
E|--------------------------------------------||-------|

E|-------------------------------------------------------------|
B|--4/5-5-5/7--7--7/9--9--9/10--10--10/12--12-12-12--15P12-----|
G|--4/5-5-5/7--7--7/9--9--9/10--10--10/12--12-12-12--15P12-----|
D|-------------------------------------------------------------|
A|-------------------------------------------------------------|
E|-------------------------------------------------------------|
[ Tab from: http://www.guitaretab.com/w/wolfgang/32117.html ]
E|-------------------------------------------------------------|
B|--10h13P12P10-----8/10-12--12-13-10--------------------------|
G|---------------12---------------------13-12-10----10/12-12---|
D|-----------------------------------------------12------------|
A|-------------------------------------------------------------|
E|-------------------------------------------------------------|

E|--------14-------10-12-12sl15-15-15-|
B|--12^14----12^14--------------------|
G|------------------------------------|
D|------------------------------------|
A|------------------------------------|
E|------------------------------------|

E|--15P14P12----12-------------------------------------------------------|
B|-----------15----15-14-12--12h14----12---------------------------------|
G|---------------------------------15-----------15P14P12-------12--------|
D|---------------------------------------14--12----------12-14----14-12--|
A|-----------------------------------------------------------------------|
E|-----------------------------------------------------------------------|

TAB BY:LEANDER V. M.                  !!END!!  
                                     CoR@ T!R@
                                    VINCENT ILONG
Related for Left Alone Acoustic tab