Guitaretab - guitar tabs
Song name
# A B C D E F G H I J K L M N O P Q R S T U V W X Y Z

Wolfgang - Sanctified tab

sanctified
wolfgang


intro: repeat 8x
Eb |-----------------------------------------------------|
Bb |-----------------------------------------------------|
Gb |----------------9----9----9-9/11-9-------------------|
Db |-----------------------------------------------------|
Ab |--------------7--7-7--7-7----------------------------|
Eb |-----------\-----------------------------------------|


verses
Eb |-----------------------------------------------------|
Bb |-----------------------------------------------------|
Gb |----------------9-----9-----9-9/11-9-----------------|
Db |-----------------------------------------------------|
Ab |-------------7-----7-----7---------------------------|
Eb |-----------------------------------------------------|


chorus: 2x
Eb |-----------------------------------------------------|
Bb |-----------------------------------------------------|
Gb |---0h2-------0h2-------0h2-------0h2-----------------|
Db |---0---------0---------0---------0-------------------|
Ab |---0----2----0----2----0----2----0----2--------------|
Eb |--------0---------0---------0---------0--------------|


repeat intro

fill in                                                  
Eb |-----------------------------------------------------|
Bb |----------------9b10----9b10-------------------------|
Gb |----------------9b10----9b10-------------------------|
Db |-----------------------------------------------------|
Ab |-----------------------------------------------------|
Eb |-----------------------------------------------------|

repeat verses
repeat chorus
[ Tab from: http://www.guitaretab.com/w/wolfgang/32435.html ]
riffs before solo
Eb |-------------------------------------------------------------------|
Bb |-------------------------------------------------------------------|
Gb |-------------------------------------------------------------------|
Db |-------------------------------------------------------------------|
Ab |-----------9*----------7*------------2-2-2-2-----------------------|
Eb |-----------7*----------5*------------0-0-0-0-----------------------|
listen to the song to know how many times to repeat


Eb |-------------------------------|
Bb |-------------------------------|
Gb |-------------------------------|
Db |-------------------------------|
Ab |-------------------------7*----|
Eb |-----0-0-0-0-0-0-0-0-0-0-5*----|


Eb |-------------------------------|
Bb |-------------------------------|
Gb |-------------------------------|
Db |-------------------------------|
Ab |-------------------------5*----|
Eb |-----0-0-0-0-0-0-0-0-0-0-3*----|


Eb |-------------------------------|
Bb |-------------------------------|
Gb |-------------------------------|
Db |-------------------------------|
Ab |-------------------------7*----|
Eb |-----0-0-0-0-0-0-0-0-0-0-5*----|


Eb |---------------------------------------------------|
Bb |---------------------------------------------------|
Gb |---------------------------------------------------|
Db |---------------------------------------------------|
Ab |--------5-----4-----5-----7------------------------|
Eb |-----0--3--0--2--0--3--0--5------------------------|

solo: hehehe... wala pa e... =)

pakinggan nyo nalang para malaman nyo pagkakasunod-sunod

Related for Sanctified tab
Advertisement will be closed in 10 seconds