Song name
# A B C D E F G H I J K L M N O P Q R S T U V W X Y Z

Wolfgang - She Is My Cain tab

She Is My Cain
ng: Wolfgang
Galing sa Album na "WURM"
(hindi sa "Acoustica" mas mahirap yun ehekhek...)

Intro at Stanza 1
e|--------------3p1(1)0--|----------5p3(3)0---|
B|-------0-1-------------|----5--3------------|  4x sa Intro
G|---0h2-----------------|--------------------|  6x sa Stanza 1
D|---------3--3----------|----7--5------------|
A|-----------------------|--0-----------------|
E|--3--------------------|--------------------|

    She is my drug,
   and she is my vein.
    She is my life,
   and she is my pain.
    She is my wheat,
   and she is my grain.

Chorus 1
e|----------------|---------------|---------------|-----3----3--|
B|----3--/8---8---|---3--/8---8---|---3--/8---8---|---3-3----3--|
G|----0---0--0-0--|---0---0--0-0--|---0---0--0-0--|---------0---|
D|----------------|---------------|---------------|-------------|
A|--3----/8-------|--3---/8-------|--3----8-------|-------------|
E|----------------|---------------|---------------|--3-----3----|

                   I cant abstain   no I know   it' so plain,

e|----------------|---------------|---------------|
B|----3--/8---8---|---3--/8---8---|---3--/8---8---|
G|----0---0--0-0--|---0---0--0-0--|---0---0--0-0--|
D|----------------|---------------|---------------|
A|--3----/8-------|--3---/8-------|--3----8-------|
E|----------------|---------------|---------------|

    She is my cain.

Interlude 1
e|------3-----3----3--|------3-------|----------5p3(3)0--|
B|----3-3---3-3----3--|--------3-----|-----5--3----------|
G|---------------0----|----0------0--|-------------------|
D|--------------------|--------------|-----7--5----------|
A|--------------------|--------------|--0----------------|
E|--3-----3-----3-----|--3-----------|-------------------|

Stanza 2
e|--------------3p1(1)0--|----------5p3(3)0---|
B|-------0-1-------------|----5--3------------|
G|---0h2-----------------|--------------------|
D|---------3--3----------|----7--5------------|
A|-----------------------|--0-----------------|
E|--3--------------------|--------------------|

    Upon the night,
    I see her eyes.
    Her tears are my skies,
    her heart beats my life.

Chorus 2
e|----------------|---------------|---------------|-----3----3--|
B|----3--/8---8---|---3--/8---8---|---3--/8---8---|---3-3----3--|
G|----0---0--0-0--|---0---0--0-0--|---0---0--0-0--|---------0---|
D|----------------|---------------|---------------|-------------|
A|--3----/8-------|--3---/8-------|--3----8-------|-------------|
E|----------------|---------------|---------------|--3-----3----|

                   I cant refrain     no I know   it' so plain,

e|----------------|---------------|---------------|
B|----3--/8---8---|---3--/8---8---|---3--/8---8---|
G|----0---0--0-0--|---0---0--0-0--|---0---0--0-0--|
D|----------------|---------------|---------------|
A|--3----/8-------|--3---/8-------|--3----8-------|
E|----------------|---------------|---------------|

    She is my cain.

Interlude 2
e|------3-----3----3--|----------5p3(3)0--|
B|----3-3---3-3----3--|-----5--3----------|
G|---------------0----|-------------------|
D|--------------------|-----7--5----------|
A|--------------------|--0----------------|
E|--3-----3-----3-----|-------------------|

Stanza 3
e|--------------3p1(1)0--|----------5p3(3)0---|
B|-------0-1-------------|----5--3------------|
G|---0h2-----------------|--------------------|
D|---------3--3----------|----7--5------------|
A|-----------------------|--0-----------------|
E|--3--------------------|--------------------|

    She is my night,
    she is my day.
    She is my sun,
    she is my rain.

Chorus 3
e|----------------|---------------|---------------|-----3----3--|
B|----3--/8---8---|---3--/8---8---|---3--/8---8---|---3-3----3--|
G|----0---0--0-0--|---0---0--0-0--|---0---0--0-0--|---------0---|
D|----------------|---------------|---------------|-------------|
A|--3----/8-------|--3---/8-------|--3----8-------|-------------|
E|----------------|---------------|---------------|--3-----3----|

                   I cant complain   'cause I know   she's my bane,

e|----------------|---------------|---------------|
B|----3--/8---8---|---3--/8---8---|---3--/8---8---|
G|----0---0--0-0--|---0---0--0-0--|---0---0--0-0--|
D|----------------|---------------|---------------|
A|--3----/8-------|--3---/8-------|--3----8-------|
E|----------------|---------------|---------------|

    She is my cain.

Outro
e|---------------------3--|--------3-------|
B|---------0h3---3/5/6----|----0-3---------|
G|-------0-----0----------|--0-------------|
D|---3/5------------------|--5-------------|
A|------------------------|----------------|
E|------------------------|----------------|

tapos

Salamat sa magbibigay pansin dito.
Hindi ako 100% na sigurado, 97% lang. Unang tab ko to, kayo na bahala
magintindi. Any comments, questions, suggestions, o kaya violent reactions e-mail nyo 
ako sa  patatasland@yahoo.com.
Cornmunist Company Rulz!!! Yeah!!! Wolfgang pa din!!! >= )
Tap to rate this tab
# A B C D E F G H I J K L M N O P Q R S T U V W X Y Z