Song name
# A B C D E F G H I J K L M N O P Q R S T U V W X Y Z

Wolfgang - Darkness Fell tab

song:darkness fell
artist: Wolfgang
album: wolfgang

note: kapag magulo, icopy and paste nyo sa notepad tpos maximize..


tuning 1/2 lower

effects: clean with chorus
Intro					    A
Eb|-----------------------------------------------7---|
Bb|--7h8-7---7h8p7---7~~(7)--------------------5------|
Gb|--7---7---7h9p7---7~~(7)----------7----------------|
Db|----------------9-----------7/9-9---9----7---------|
Ab|--------------------------------------9--7---------|
Eb|-----------------------------------------5---------|
         C
Eb|----------------------------------------------|
Bb|-----------------5h6-5-----------8------------|
Gb|------5~~--------5---5--7p5-5/7--7--7h9-7-----|
Db|------5~~------5--------7p5-5/7-----7h9-7-----|
Ab|------3~~--5h7--------------------------------|
Eb|--5h7-----------------------------------------|

riff on all stanzas
Eb|-------------------------------------------5~~-----------------------------------------|
Bb|-----------------------7h8-7----------5------------------------5h6-5----------8--------|
Gb|-----------7~~---------7---7-------------6----------5~~--------5---5--7p5-5\7-7-7\9-7--|
Db|-----------7~~-------7--------7~~--7----------------5~~------5--------7p5-5\7---7\9-7--|
Ab|--5h7p5----5~~---5h7----------7~~-------------------3~~--5\7---------------------------|
Eb|--------7---------------------5~~---------------5h7------------------------------------|

Eb|-------------------------------------------5-----5-----------8------------------------------------|
Bb|----------------------7h8-7----------5-------5-----5-----------5----------5h6-5---------8---------|
Gb|----------7~~---------7---7-------------6------6-----6---5-5-----5--------5---5-7p5-5\7-7-7\-9-7--|
Db|----------7~~-------7--------7~~--7----------------------5-5------------5-------7p5-5\7---7\-9-7--|
Ab|--5h7p5---5~~---5h7----------7~~-------------------------3-3--------5\7---------------------------|
Eb|-------7---------------------5~~------------------------------------------------------------------|

Chorus:(no strumming pattern, kaya nyo nang seprahin yan, wag aanga anga ;-)	)
Eb|-------------  ---------|
Bb|-------------  ---------|
Gb|-------------  --5--7---|
Db|--5---3---5--  --5--7---|
Ab|--5---3---5--  --3--5---|
Eb|--3---1---3--  ---------|


solo:(legend: bf= bend full, bh=bend half, h=hammer on, p=pull off, /=slidedown, \=slideup)
Eb|---------------------------------------------------------------------------------------|
Bb|--------15-17-17bf~17bf~17bf~~~--17bf-17p15-17~~--14-15-17-15-14-12--------------------|
Gb|--14-16-------------------------------------------------------------14-11-9-11-11bf~~--|
Db|---------------------------------------------------------------------------------------|
Ab|---------------------------------------------------------------------------------------|
Eb|---------------------------------------------------------------------------------------|

Eb|--------------------------------------------------------------------------------|
Bb|--------------------------------------------------------------10----------------|
Gb|--12-12h14p12p9---------9bf-9bfr-7~~~-7\------7-----7---7-9bf----9bf-9p7-9~~~~--|
Db|----------------12-9-12------------------/9-9---9-9---9-------------------------|
Ab|--------------------------------------------------------------------------------|
Eb|--------------------------------------------------------------------------------|


Eb|-----------------------------------------------------------------------------------------------|
Bb|------7h8---7h8-10p8p7-----------------------------------------------------------8h10h12p10p8--|
Gb|--7h9-----9------------9p7------------------------------------------------7h8h10---------------|
Db|---------------------------9p7----------------------------7h9p7----7h9h10----------------------|
Ab|-------------------------------9p7--------7h9p7----7h9h10-------10-----------------------------|
Eb|-----------------------------------7h9h10-------10---------------------------------------------|

cont...
-------------------------------------7---------------------------------------------|
--15bf-15bfr-15~~~----7-8-7---7-8-10---10-8-7----------13Bf-13-12-10---------------|
--------------------9-------9-----------------9-7---7-----------------12-12-12~~---|
--------------------9-----------------------------9--------------------------------|
-----------------------------------------------------------------------------------|
-----------------------------------------------------------------------------------|
v=vibrato
-----------------------------------------------------------------------------------------------------------------|
-----------------------------------------------------15bfr-15v~~--14-14h15p14p12-14-12------------13bh-13bfrv~~--|
--------9v-9-12-9-9-12~~-9-12-14bh-14bhr-14p12-14-14-----------------------------------14-12----9----------------|
--12-12--------------------------------------------------------------------------------------12------------------|
-----------------------------------------------------------------------------------------------------------------|
-----------------------------------------------------------------------------------------------------------------|


-------------------------------------------------------------10-12-15--13v~~--12----------17bfr-17bfr-17bfrv~~~---|
--12h13p12p10-12-10------------------------------------10-12---------------------15-14-12-------------------------|
--------------------12-9-12v-14-14bf-14p12-14v----14/-------------------------------------------------------------|
------------------------------------------------------------------------------------------------------------------|
------------------------------------------------------------------------------------------------------------------|
------------------------------------------------------------------------------------------------------------------|

then verse
chorus


end...


tabbed by leander_85@yahoo.com
Tap to rate this tab
 
# A B C D E F G H I J K L M N O P Q R S T U V W X Y Z