Song name
# A B C D E F G H I J K L M N O P Q R S T U V W X Y Z

Wolfgang - Natutulog Kong Mundo tab

			     Natutulog kong mundo - Wolfgang
-------------------------------------------------------------------------------
Tabbed by:Harold macaraeg
Email: Hapiharold106@yahoo.com

Tuning:standard



Intro:
                 At naglaho ang liwanag sa dilim
e|-------|-------------------------------------------------------------------|
B|-------|-------------------------------------------------------------------|intro and stanza
G|-------|-------------------------------------------------------------------|
D|-4-4-4-|-4-4---------------------------------------------------------------|
A|-1-1-1-|-1-1-2-2-2-2-------------------------------------------------------|
E|-------|-----0-0-0-0-------------------------------------------------------|


Refrain:
                 Bote ng Alak na hindi nabuksan
e|---------------------------------------------------------------------------|
B|---------------------------------------------------------------------------|
G|---------------------------------------------------------------------------|2X
D|-4---6-8-6-8-8-9-6-8-8-6-8-9-6-8-8-6/8-3-4---------------------------------|
A|-1-2-4-6-6-8-8-7-4-6-8-6-8-7-4-6-6-6/8-3-4---------------------------------|
E|---0-----4-6-6-------6-4-6---------4/6-1-2---------------------------------|




Chorus:
                 Kaibigan tunay ka ba?....
e|---------------------------------------------------------------------------|
B|---------------------------------------------------------------------------|
G|---------------------------------------------------------------------------|2X
D|-4---6-8-6-8-8-9-6-8-8-6-8-9-6-8-8-6/8-3-4---------------------------------|
A|-1-2-4-6-6-8-8-7-4-6-8-6-8-7-4-6-6-6/8-3-4---------------------------------|
E|---0-----4-6-6-------6-4-6---------4/6-1-2---------------------------------| 




Adlib:

e|---------------------------------------------------------------------------|
B|----------------------------------------10-12\10/-12/12/-12\11-12\11---10--|
G|------------------7/------------------9-----------11/12/-------------11----|
D|---------7--7-9-7-9/-----7----9/9-7-9--------------------------------------|
A|-----7/9--9----------7/9--7/9----------------------------------------------|
E|-7/9-----------------------------------------------------------------------|

e|--------------------------------------------------------------------------------14---14---14---14-|
B|---------------------9/9-7-7-9-10-12/-12/-12-10--10--------------------------12/--12/--12/--12/---|
G|-11-9--8/9\8\6-6/8/9------9--------------------11--11---------------------------------------------|
D|--------------9---------------------------------------9\7-9/11-9/11-9/11-9/11---------------------|
A|--------------------------------------------------------------------------------------------------|
E|--------------------------------------------------------------------------------------------------|


2nd Guitar in Guitar Solo

e|---------------------------------------------------------------------------|
B|---------------------------------------------------------------------------|
G|---------------------------------------------------------------------------|2X
D|-4---6-8-6-8-8-9-6-8-8-6-8-9-6-8-8-6/8-3-4---------------------------------|
A|-1-2-4-6-6-8-8-7-4-6-8-6-8-7-4-6-6-6/8-3-4---------------------------------|
E|---0-----4-6-6-------6-4-6---------4/6-1-2---------------------------------| 

Adlib:

e|-------------9--9----9---9---9---------------------------------------------|
B|------11--10/-10/-10/-10/-10/-10/\10/10/10/-10-9---9--8--------------------|
G|-8/10---8----------------------------------------10-10---10-8-----6----8/--|
D|--------------------------------------------------------8--8--6/8---6/8----|
A|---------------------------------------------------------------------------|
E|---------------------------------------------------------------------------|

e|---------------------------------------------------------9\7\6-------------|
B|--------------------------------------------9--9--9-----------9\7\6--------|
G|-8-6-6--------6---6---6--------6---6---6--8/-8/-8/-8/-8-------------9\8\6--|
D|----8---------6---6---6--------6---6---6-----------------------------------|
A|----------6/8---8---8------6/8---8---8-------------------------------------|
E|-------4/6--------------4/6------------------------------------------------|

e|---------------------------------------------------------------------------|
B|---------------------------------------------------------------------------|
G|---------------------------------------------------------------------------|
D|--------6/8---------6/8---------6/8----------------------------------------|
A|----6/8---------6/8---------6/8--------------------------------------------|
E|-4/6--------4/6---------4/6------------------------------------------------|


                      
                      
e|---------------|-----------------------------------------------------------|
B|---------------|-----------------------------------------------------------|
G|---------------|-----------------------------------------------------------|
D|-3-6-3---------|-----------------------------------------------------------|
A|-1-4-1---/7----|-----------------------------------------------------------|
E|---------------|-----------------------------------------------------------|


Repeat Refrain:  Wala Na Bang Kwento......

Repeat Refrain W/ Distortion:   Nagsisisi.... May Kasalanan Ba Ako....

                        Ang Natutulog Kong Mundo...........
e|---------------------------------------------------------------------------|
B|---------------------------------------------------------------------------|
G|---------------------------------------------------------------------------|2X
D|-4---6-8-6-8-8-9-6-8-8-6-8-9-6-8-8-6/8-3-4---------------------------------|
A|-1-2-4-6-6-8-8-7-4-6-8-6-8-7-4-6-6-6/8-3-4---------------------------------|
E|---0-----4-6-6-------6-4-6---------4/6-1-2---------------------------------| 


Pag May Mali I-mail Nyo Na lang sa email ko... aayusin ko na lang para sa inyo...
Good Luck...

youtube.com search: haroldplapla


| /  slide up
| \  slide down
| h  hammer-on
| p  pull-off
| ~  vibrato
| +  harmonic
| x  Mute note
===============================================================================
Tap to rate this tab
 
# A B C D E F G H I J K L M N O P Q R S T U V W X Y Z