Song name
# A B C D E F G H I J K L M N O P Q R S T U V W X Y Z

Wolfgang - Cast Of Clowns Acoustic tab

CAST OF CLOWNS (ACOUSTIC) - WOLFGANG
Tabbed by: Aaron James Bodoraya (PANDACAN MANILA)
Email: combat_ron33@yahoo.com

Pakicheck nalang kung tama kinapa ko lang kasi eto 
wala kasi akong chords nito eh,
Pero ok to try nyo…

Tuning: standard

INTRO:
e|--------------------------|--------------------------|
B|--------------------------|--------------------------|
G|--------0--------0--------|--------0--------0--------|
D|-----2--------2-----0-----|-----2--------2-----0-----|
A|-----------3-----------0--|-----------3-----------0--|
E|--0-----------------------|--0-----------------------|

e|--------------------------|--------------------------|
B|--------------------------|--------3-----------------|
G|--------0--------0--------|--------------------------|
D|-----2--------2-----0-----|-----0---------0----------|
A|-----------3-----------0--|--2-----------------------|
E|--0-----------------------|-----------3------3--2----|

VERSE:
e|--------------------------|--------------------------|
B|--------------------------|--------------------------|
G|--------0--------0--------|--------0--------0--------|
D|-----2--------2-----0-----|-----2--------2-----0-----|
A|-----------3-----------0--|-----------3-----------0--|
E|--0-----------------------|--0-----------------------|
       FATHER                   I KNOW NOW

e|--------------------------|--------------------------|
B|--------------------------|--------3-----------------|
G|--------0--------0--------|--------------------------|
D|-----2--------2-----0-----|-----0---------0----------|
A|-----------3-----------0--|--2-----------------------|
E|--0-----------------------|-----------3------3--2----|
      LIFE  HAS  BEEN  STRETCHED   TO LONG

e|--------------------------|--------------------------|
B|--------------------------|--------------------------|
G|--------0--------0--------|--------0--------0--------|
D|-----2--------2-----0-----|-----2--------2-----0-----|
A|-----------3-----------0--|-----------3-----------0--|
E|--0-----------------------|--0-----------------------|
      ACROSS  PAPERS          TORN AND CRAMPLED

e|--------------------------|--------------------------|
B|--------------------------|--------3-----------------|
G|--------0--------0--------|--------------------------|
D|-----2--------2-----0-----|-----0---------0----------|
A|-----------3-----------0--|--2-----------------------|
E|--0-----------------------|-----------3------3--2----|
     WAS DRAWN THE GARDEN THATN WE’VE SAWN

e|--------------------------|--------------------------|
B|-----------0-----1--------|-----------0-----1--------|
G|--------------0-----0-----|--------0-----0-----0-----|
D|--------2--------------2--|-----2-----------------2--|
A|-----3--------------------|--3-----------------------|
E|--0-----------------------|--------------------------|
             YOU MADE ME               YOU MADE ME 

e|-----------------------------------------------------|
B|-----------0-----1-----3-----1-----0-----1--0--------|
G|--------0-----0-----0-----0-----0-----0--------0-----|
D|-----2-----------------------------------------------|
A|--3--------------------------------------------------|
E|-----------------------------------------------------|
       YOU    MADE    ME    SO    DAMN    HA___PPY 

CHORUS:
e|-----------------------------------------------------|
B|--------3-----------3-----------3-----------2--------|
G|-----------0-----------2-----------2-----------2-----|
D|-----2-----------0-----------0-----------0-----------|
A|--3-----------1-----------2--------------------------|
E|--------------------------------------0--------------|
        WANTING   TO   FOLLOW   YOU   AROUND

e|-----------------------------------------------------|
B|--------3-----------3-----------3-----------2--------|
G|-----------0-----------2-----------2-----------2-----|
D|-----2-----------0-----------0-----------0-----------|
A|--3-----------1-----------2--------------------------|
E|--------------------------------------0--------------|
   BUT   LEADING   A   CAST   OF   CLOWNS

e|-------------------------------0--------0------------|
B|----------3--------3--------------3--------3---------|
G|-------------0--------0--------------0--------0------|
D|-------4-----------------4-----------------------4---|
A|--3/5-----------5-----------5------------------------|
E|-----------------------------------------------------|
           HOW       COULD       YOU

e|----------------------------------0--------------------------|
B|-------------5-----------5-----------5-----5-----------------|
G|----------------0-----------0-----------0-----0-----0--------|
D|----------6-----------6--------6-----------------6-----6-----|
A|--5/7--7-----------7--------------------------------------7--|
E|-------------------------------------------------------------|
         EXPECT     ME     TO     WORSHIP     YOUR     NAME

e|--------------------------|--------------------------|
B|--------------------------|--------------------------|
G|--------0--------0--------|--------0--------0--------|
D|-----2--------2-----0-----|-----2--------2-----0-----|
A|-----------3-----------0--|-----------3-----------0--|
E|--0-----------------------|--0-----------------------|

e|--------------------------|--------------------------|
B|--------------------------|--------3-----------------|
G|--------0--------0--------|--------------------------|
D|-----2--------2-----0-----|-----0---------0----------|
A|-----------3-----------0--|--2-----------------------|
E|--0-----------------------|-----------3------3--2----|


e|----------------------------------|----------------------------------|
B|----------------------------------|----------------------------------|
G|----------------------------------|----------------------------------|
D|---------9--------7--------7/9x9--|---------9--------7--------7/9x9--|
A|-----10--------9--------5—-5/7x7--|-----10--------9--------5—-5/7x7--|
E|--0---------0--------0------------|--0---------0--------0------------|


e|----------------------------------|----------------------------------|
B|----------------------------------|----------------------------------|
G|----------------------------------|----------------------------------|
D|---------9--------7--------7/9x9--|---------9--------7--------7/9x9--|
A|-----10--------9--------5—-5/7x7--|-----10--------9--------5—-5/7x7--|
E|--0---------0--------0------------|--0---------0--------0------------|


e|----------------------------------|----------------------------------|
B|----------------------------------|----------------------------------|
G|----------------------------------|----------------------------------|
D|-------9-x-7-x-9-x-7-7/9--9-9-----|-------9-x-7-x-9-x-7-7/9--9-9-----|
A|------10-x-9-x-7-x-5-5/7--7-7-----|------10-x-9-x-7-x-5-5/7--7-7-----|
E|---0------------------------------|---0------------------------------|


e|----------------------------------|----------------------------------|
B|----------------------------------|----------------------------------|
G|----------------------------------|----------------------------------|
D|-------9-x-7-x-9-x-7-7/9--9-9-----|-------9-x-7-x-9-x-7-7/9--9-9-----|
A|------10-x-9-x-7-x-5-5/7--7-7-----|------10-x-9-x-7-x-5-5/7--7-7-----|
E|---0------------------------------|---0------------------------------|
  Father I smile wings have stretched to the sky………………


Next tym nalang yung adlib natatae na kasi ako eh….
Tap to rate this tab
# A B C D E F G H I J K L M N O P Q R S T U V W X Y Z