Song name
# A B C D E F G H I J K L M N O P Q R S T U V W X Y Z

Wolfgang - Blue11 tab

                  "BLUE11" BY WOLFGANG
                 transcribed by: freon
          visit me at: freongang_81@yahoo.com  
                 freongang_08@yahoo.com                   
 
NOTE: TNX TO WOLF GEMORA FOR SOME INFO ABOUT YOUR BAND,, AT SA MGA 
 USAPANG BANDA,, HEHEHE!!! ASTIG KA TLGA,,, ASTIG ANG WOLFGANG...TNX

INTRO:     
                x4
e|-------------------------------------3-4-2---|
B|-------------------------------------3-4---2-|
G|--5/7--7/8--7--5-5----7-7--4-5---------------|
D|----------------------5-5--2-3---------------|
A|--3/5--5/6--5--3-3---------------------------|
E|---------------------------------------------|

            X4
e|-----------------------------------------|
B|-----------------------------------------|
G|-------11-14-12-11------------9-12-11-9--|
D|-----------------------------------------|
A|--3-5--9--12-10-9-------3-5---7-10-9--7--|
E|-----------------------------------------|

            X2                   /outro: last part
e|------------------------------/---------5------|
B|------------------------------/---------5------|
G|-------9-10----------4-5------/----------------|
D|-------7-8-----------2-3------/----------------|
A|--3-5------------3-5----------/----------------|
E|------------------------------/----------------|
                <<<>>>
 TNX TO MANUEL LEGARDA, AS MY INFLUENCED GUITARIST…
Tap to rate this tab
# A B C D E F G H I J K L M N O P Q R S T U V W X Y Z